  0
SECTION
  2
HEADER
  9
$ACADVER
  1
AC1015
  9
$ACADMAINTVER
 70
    20
  9
$DWGCODEPAGE
  3
ANSI_1252
  9
$INSBASE
 10
0.0
 20
0.0
 30
0.0
  9
$EXTMIN
 10
1611.562735527422
 20
876.9398486404277
 30
0.0
  9
$EXTMAX
 10
1614.596042340443
 20
877.3898486404275
 30
0.0
  9
$LIMMIN
 10
0.0
 20
0.0
  9
$LIMMAX
 10
420.0
 20
297.0
  9
$ORTHOMODE
 70
     1
  9
$REGENMODE
 70
     1
  9
$FILLMODE
 70
     1
  9
$QTEXTMODE
 70
     0
  9
$MIRRTEXT
 70
     1
  9
$LTSCALE
 40
1.0
  9
$ATTMODE
 70
     1
  9
$TEXTSIZE
 40
2.5
  9
$TRACEWID
 40
1.0
  9
$TEXTSTYLE
  7
SANINDUSA
  9
$CLAYER
  8
0
  9
$CELTYPE
  6
ByLayer
  9
$CECOLOR
 62
   256
  9
$CELTSCALE
 40
1.0
  9
$DISPSILH
 70
     0
  9
$DIMSCALE
 40
1.0
  9
$DIMASZ
 40
2.0
  9
$DIMEXO
 40
1.0
  9
$DIMDLI
 40
1.0
  9
$DIMRND
 40
0.0
  9
$DIMDLE
 40
0.0
  9
$DIMEXE
 40
1.0
  9
$DIMTP
 40
0.0
  9
$DIMTM
 40
0.0
  9
$DIMTXT
 40
2.0
  9
$DIMCEN
 40
0.0
  9
$DIMTSZ
 40
0.0
  9
$DIMTOL
 70
     0
  9
$DIMLIM
 70
     0
  9
$DIMTIH
 70
     0
  9
$DIMTOH
 70
     0
  9
$DIMSE1
 70
     0
  9
$DIMSE2
 70
     0
  9
$DIMTAD
 70
     1
  9
$DIMZIN
 70
     8
  9
$DIMBLK
  1

  9
$DIMASO
 70
     1
  9
$DIMSHO
 70
     1
  9
$DIMPOST
  1

  9
$DIMAPOST
  1

  9
$DIMALT
 70
     0
  9
$DIMALTD
 70
     3
  9
$DIMALTF
 40
0.03937007874016
  9
$DIMLFAC
 40
1.0
  9
$DIMTOFL
 70
     1
  9
$DIMTVP
 40
0.0
  9
$DIMTIX
 70
     0
  9
$DIMSOXD
 70
     0
  9
$DIMSAH
 70
     0
  9
$DIMBLK1
  1

  9
$DIMBLK2
  1

  9
$DIMSTYLE
  2
SANINDUSA
  9
$DIMCLRD
 70
   256
  9
$DIMCLRE
 70
   256
  9
$DIMCLRT
 70
   256
  9
$DIMTFAC
 40
1.0
  9
$DIMGAP
 40
1.0
  9
$DIMJUST
 70
     0
  9
$DIMSD1
 70
     0
  9
$DIMSD2
 70
     0
  9
$DIMTOLJ
 70
     0
  9
$DIMTZIN
 70
     8
  9
$DIMALTZ
 70
     0
  9
$DIMALTTZ
 70
     0
  9
$DIMUPT
 70
     0
  9
$DIMDEC
 70
     1
  9
$DIMTDEC
 70
     1
  9
$DIMALTU
 70
     2
  9
$DIMALTTD
 70
     3
  9
$DIMTXSTY
  7
SANINDUSA
  9
$DIMAUNIT
 70
     0
  9
$DIMADEC
 70
     1
  9
$DIMALTRND
 40
0.0
  9
$DIMAZIN
 70
     0
  9
$DIMDSEP
 70
    44
  9
$DIMATFIT
 70
     3
  9
$DIMFRAC
 70
     0
  9
$DIMLDRBLK
  1

  9
$DIMLUNIT
 70
     2
  9
$DIMLWD
 70
    -1
  9
$DIMLWE
 70
    -1
  9
$DIMTMOVE
 70
     0
  9
$LUNITS
 70
     2
  9
$LUPREC
 70
     4
  9
$SKETCHINC
 40
1.0
  9
$FILLETRAD
 40
3.0
  9
$AUNITS
 70
     0
  9
$AUPREC
 70
     0
  9
$MENU
  1
.
  9
$ELEVATION
 40
0.0
  9
$PELEVATION
 40
0.0
  9
$THICKNESS
 40
0.0
  9
$LIMCHECK
 70
     0
  9
$CHAMFERA
 40
10.0
  9
$CHAMFERB
 40
10.0
  9
$CHAMFERC
 40
20.0
  9
$CHAMFERD
 40
0.0
  9
$SKPOLY
 70
     0
  9
$TDCREATE
 40
2453913.457835278
  9
$TDUCREATE
 40
2453913.416168611
  9
$TDUPDATE
 40
2453977.663617257
  9
$TDUUPDATE
 40
2453977.621950590
  9
$TDINDWG
 40
0.0045249306
  9
$TDUSRTIMER
 40
0.0045249306
  9
$USRTIMER
 70
     1
  9
$ANGBASE
 50
0.0
  9
$ANGDIR
 70
     0
  9
$PDMODE
 70
     0
  9
$PDSIZE
 40
0.0
  9
$PLINEWID
 40
0.0
  9
$SPLFRAME
 70
     0
  9
$SPLINETYPE
 70
     6
  9
$SPLINESEGS
 70
     8
  9
$HANDSEED
  5
1899
  9
$SURFTAB1
 70
     6
  9
$SURFTAB2
 70
     6
  9
$SURFTYPE
 70
     6
  9
$SURFU
 70
     6
  9
$SURFV
 70
     6
  9
$UCSBASE
  2

  9
$UCSNAME
  2

  9
$UCSORG
 10
0.0
 20
0.0
 30
0.0
  9
$UCSXDIR
 10
1.0
 20
0.0
 30
0.0
  9
$UCSYDIR
 10
0.0
 20
1.0
 30
0.0
  9
$UCSORTHOREF
  2

  9
$UCSORTHOVIEW
 70
     0
  9
$UCSORGTOP
 10
0.0
 20
0.0
 30
0.0
  9
$UCSORGBOTTOM
 10
0.0
 20
0.0
 30
0.0
  9
$UCSORGLEFT
 10
0.0
 20
0.0
 30
0.0
  9
$UCSORGRIGHT
 10
0.0
 20
0.0
 30
0.0
  9
$UCSORGFRONT
 10
0.0
 20
0.0
 30
0.0
  9
$UCSORGBACK
 10
0.0
 20
0.0
 30
0.0
  9
$PUCSBASE
  2

  9
$PUCSNAME
  2

  9
$PUCSORG
 10
0.0
 20
0.0
 30
0.0
  9
$PUCSXDIR
 10
1.0
 20
0.0
 30
0.0
  9
$PUCSYDIR
 10
0.0
 20
1.0
 30
0.0
  9
$PUCSORTHOREF
  2

  9
$PUCSORTHOVIEW
 70
     0
  9
$PUCSORGTOP
 10
0.0
 20
0.0
 30
0.0
  9
$PUCSORGBOTTOM
 10
0.0
 20
0.0
 30
0.0
  9
$PUCSORGLEFT
 10
0.0
 20
0.0
 30
0.0
  9
$PUCSORGRIGHT
 10
0.0
 20
0.0
 30
0.0
  9
$PUCSORGFRONT
 10
0.0
 20
0.0
 30
0.0
  9
$PUCSORGBACK
 10
0.0
 20
0.0
 30
0.0
  9
$USERI1
 70
     0
  9
$USERI2
 70
     0
  9
$USERI3
 70
     0
  9
$USERI4
 70
     0
  9
$USERI5
 70
     0
  9
$USERR1
 40
0.0
  9
$USERR2
 40
0.0
  9
$USERR3
 40
0.0
  9
$USERR4
 40
0.0
  9
$USERR5
 40
0.0
  9
$WORLDVIEW
 70
     1
  9
$SHADEDGE
 70
     3
  9
$SHADEDIF
 70
    70
  9
$TILEMODE
 70
     1
  9
$MAXACTVP
 70
    64
  9
$PINSBASE
 10
0.0
 20
0.0
 30
0.0
  9
$PLIMCHECK
 70
     0
  9
$PEXTMIN
 10
1.000000000000000E+20
 20
1.000000000000000E+20
 30
1.000000000000000E+20
  9
$PEXTMAX
 10
-1.000000000000000E+20
 20
-1.000000000000000E+20
 30
-1.000000000000000E+20
  9
$PLIMMIN
 10
0.0
 20
0.0
  9
$PLIMMAX
 10
420.0
 20
297.0
  9
$UNITMODE
 70
     0
  9
$VISRETAIN
 70
     1
  9
$PLINEGEN
 70
     0
  9
$PSLTSCALE
 70
     1
  9
$TREEDEPTH
 70
  3020
  9
$CMLSTYLE
  2
Standard
  9
$CMLJUST
 70
     0
  9
$CMLSCALE
 40
20.0
  9
$PROXYGRAPHICS
 70
     1
  9
$MEASUREMENT
 70
     1
  9
$CELWEIGHT
370
    -1
  9
$ENDCAPS
280
     0
  9
$JOINSTYLE
280
     0
  9
$LWDISPLAY
290
     0
  9
$INSUNITS
 70
     6
  9
$HYPERLINKBASE
  1

  9
$STYLESHEET
  1
monochrome.ctb
  9
$XEDIT
290
     1
  9
$CEPSNTYPE
380
     0
  9
$PSTYLEMODE
290
     1
  9
$FINGERPRINTGUID
  2
{B3AF52D1-F3A7-4390-8EF6-748FABB39234}
  9
$VERSIONGUID
  2
{F9ED4326-58CB-48FB-B3DB-D3952E727E26}
  9
$EXTNAMES
290
     1
  9
$PSVPSCALE
 40
0.0
  9
$OLESTARTUP
290
     0
  0
ENDSEC
  0
SECTION
  2
CLASSES
  0
CLASS
  1
ACDBDICTIONARYWDFLT
  2
AcDbDictionaryWithDefault
  3
ObjectDBX Classes
 90
        0
280
     0
281
     0
  0
CLASS
  1
ACDBPLACEHOLDER
  2
AcDbPlaceHolder
  3
ObjectDBX Classes
 90
        0
280
     0
281
     0
  0
CLASS
  1
LAYOUT
  2
AcDbLayout
  3
ObjectDBX Classes
 90
        0
280
     0
281
     0
  0
CLASS
  1
DICTIONARYVAR
  2
AcDbDictionaryVar
  3
ObjectDBX Classes
 90
        0
280
     0
281
     0
  0
CLASS
  1
DIMASSOC
  2
AcDbDimAssoc
  3
"AcDbDimAssoc|Product Desc:     AcDim ARX App For Dimension|Company:          Autodesk, Inc.|WEB Address:      www.autodesk.com"
 90
    32768
280
     0
281
     0
  0
CLASS
  1
TABLESTYLE
  2
AcDbTableStyle
  3
ObjectDBX Classes
 90
     2047
280
     0
281
     0
  0
CLASS
  1
SORTENTSTABLE
  2
AcDbSortentsTable
  3
ObjectDBX Classes
 90
    32768
280
     0
281
     0
  0
ENDSEC
  0
SECTION
  2
TABLES
  0
TABLE
  2
VPORT
  5
8
330
0
100
AcDbSymbolTable
 70
     2
  0
VPORT
  5
1891
330
8
100
AcDbSymbolTableRecord
100
AcDbViewportTableRecord
  2
*Active
 70
     0
 10
0.0
 20
0.0
 11
1.0
 21
1.0
 12
1613.079388933932
 22
877.1648486404275
 13
0.0
 23
0.0
 14
10.0
 24
10.0
 15
10.0
 25
10.0
 16
0.0
 26
0.0
 36
1.0
 17
0.0
 27
0.0
 37
0.0
 40
1.91025372253703
 41
1.593939393939393
 42
50.0
 43
0.0
 44
0.0
 50
0.0
 51
0.0
 71
     0
 72
   100
 73
     1
 74
     2
 75
     0
 76
     0
 77
     0
 78
     0
281
     0
 65
     1
110
0.0
120
0.0
130
0.0
111
1.0
121
0.0
131
0.0
112
0.0
122
1.0
132
0.0
 79
     0
146
0.0
  0
ENDTAB
  0
TABLE
  2
LTYPE
  5
5
330
0
100
AcDbSymbolTable
 70
     3
  0
LTYPE
  5
14
330
5
100
AcDbSymbolTableRecord
100
AcDbLinetypeTableRecord
  2
ByBlock
 70
     0
  3

 72
    65
 73
     0
 40
0.0
  0
LTYPE
  5
15
330
5
100
AcDbSymbolTableRecord
100
AcDbLinetypeTableRecord
  2
ByLayer
 70
     0
  3

 72
    65
 73
     0
 40
0.0
  0
LTYPE
  5
16
330
5
100
AcDbSymbolTableRecord
100
AcDbLinetypeTableRecord
  2
Continuous
 70
     0
  3
Solid line
 72
    65
 73
     0
 40
0.0
  0
LTYPE
  5
2D
330
5
100
AcDbSymbolTableRecord
100
AcDbLinetypeTableRecord
  2
DASHDOT
 70
     0
  3
Dash dot __ . __ . __ . __ . __ . __ . __ . __
 72
    65
 73
     4
 40
25.4
 49
12.7
 74
     0
 49
-6.349999999999999
 74
     0
 49
0.0
 74
     0
 49
-6.349999999999999
 74
     0
  0
LTYPE
  5
2E
330
5
100
AcDbSymbolTableRecord
100
AcDbLinetypeTableRecord
  2
HIDDEN
 70
     0
  3
Hidden __ __ __ __ __ __ __ __ __ __ __ __ __ _
 72
    65
 73
     2
 40
9.524999999999998
 49
6.349999999999999
 74
     0
 49
-3.174999999999999
 74
     0
  0
ENDTAB
  0
TABLE
  2
LAYER
  5
2
330
0
100
AcDbSymbolTable
 70
    16
  0
LAYER
  5
10
330
2
100
AcDbSymbolTableRecord
100
AcDbLayerTableRecord
  2
0
 70
     0
 62
     7
  6
Continuous
370
    -3
390
F
  0
LAYER
  5
2F
330
2
100
AcDbSymbolTableRecord
100
AcDbLayerTableRecord
  2
1
 70
     0
 62
     1
  6
Continuous
370
    -3
390
F
  0
LAYER
  5
30
330
2
100
AcDbSymbolTableRecord
100
AcDbLayerTableRecord
  2
2
 70
     0
 62
     2
  6
Continuous
370
    -3
390
F
  0
LAYER
  5
31
330
2
100
AcDbSymbolTableRecord
100
AcDbLayerTableRecord
  2
3
 70
     0
 62
     3
  6
Continuous
370
    -3
390
F
  0
LAYER
  5
32
330
2
100
AcDbSymbolTableRecord
100
AcDbLayerTableRecord
  2
4
 70
     0
 62
     4
  6
Continuous
370
    -3
390
F
  0
LAYER
  5
33
330
2
100
AcDbSymbolTableRecord
100
AcDbLayerTableRecord
  2
5
 70
     0
 62
     5
  6
Continuous
370
    -3
390
F
  0
LAYER
  5
34
330
2
100
AcDbSymbolTableRecord
100
AcDbLayerTableRecord
  2
6
 70
     0
 62
     6
  6
Continuous
370
    -3
390
F
  0
LAYER
  5
35
330
2
100
AcDbSymbolTableRecord
100
AcDbLayerTableRecord
  2
7
 70
     0
 62
     7
  6
Continuous
370
    -3
390
F
  0
LAYER
  5
36
330
2
100
AcDbSymbolTableRecord
100
AcDbLayerTableRecord
  2
cen
 70
     0
 62
     7
  6
DASHDOT
370
    -3
390
F
  0
LAYER
  5
37
330
2
100
AcDbSymbolTableRecord
100
AcDbLayerTableRecord
  2
hid
 70
     0
 62
     7
  6
HIDDEN
370
    -3
390
F
  0
LAYER
  5
5D6
330
2
100
AcDbSymbolTableRecord
100
AcDbLayerTableRecord
  2
hatch
 70
     0
 62
     9
  6
Continuous
370
    -3
390
F
  0
LAYER
  5
8AF
330
2
100
AcDbSymbolTableRecord
100
AcDbLayerTableRecord
  2
9
 70
     0
 62
     9
  6
Continuous
370
    -3
390
F
  0
LAYER
  5
8F8
330
2
100
AcDbSymbolTableRecord
100
AcDbLayerTableRecord
  2
leg fin
 70
     0
 62
     9
  6
Continuous
370
    -3
390
F
  0
LAYER
  5
91D
330
2
100
AcDbSymbolTableRecord
100
AcDbLayerTableRecord
  2
cotas
 70
     0
 62
     1
  6
Continuous
370
    -3
390
F
  0
LAYER
  5
92F
330
2
100
AcDbSymbolTableRecord
100
AcDbLayerTableRecord
  2
Defpoints
 70
     0
 62
     7
  6
Continuous
290
     0
370
    -3
390
F
  0
LAYER
  5
BA5
330
2
100
AcDbSymbolTableRecord
100
AcDbLayerTableRecord
  2
SANINDUSA
 70
     0
 62
     3
  6
Continuous
370
    -3
390
F
  0
ENDTAB
  0
TABLE
  2
STYLE
  5
3
330
0
100
AcDbSymbolTable
 70
     3
  0
STYLE
  5
11
330
3
100
AcDbSymbolTableRecord
100
AcDbTextStyleTableRecord
  2
Standard
 70
     0
 40
0.0
 41
1.0
 50
0.0
 71
     0
 42
2.5
  3
Avgardn.ttf
  4

1001
ACAD
1000
AvantGarde Bk BT
1071
       34
  0
STYLE
  5
2C
330
3
100
AcDbSymbolTableRecord
100
AcDbTextStyleTableRecord
  2

 70
     1
 40
0.0
 41
1.0
 50
0.0
 71
     0
 42
2.5
  3
ltypeshp.shx
  4

  0
STYLE
  5
91F
330
3
100
AcDbSymbolTableRecord
100
AcDbTextStyleTableRecord
  2
SANINDUSA
 70
     0
 40
0.0
 41
1.0
 50
0.0
 71
     0
 42
2.5
  3
verdana.TTF
  4

1001
ACAD
1000
Verdana
1071
       34
  0
ENDTAB
  0
TABLE
  2
VIEW
  5
6
330
0
100
AcDbSymbolTable
 70
     0
  0
ENDTAB
  0
TABLE
  2
UCS
  5
7
330
0
100
AcDbSymbolTable
 70
     0
  0
ENDTAB
  0
TABLE
  2
APPID
  5
9
330
0
100
AcDbSymbolTable
 70
     3
  0
APPID
  5
12
330
9
100
AcDbSymbolTableRecord
100
AcDbRegAppTableRecord
  2
ACAD
 70
     0
  0
APPID
  5
3A
330
9
100
AcDbSymbolTableRecord
100
AcDbRegAppTableRecord
  2
DCO15
 70
     0
  0
APPID
  5
16E9
330
9
100
AcDbSymbolTableRecord
100
AcDbRegAppTableRecord
  2
ACAD_EXEMPT_FROM_CAD_STANDARDS
 70
     0
  0
ENDTAB
  0
TABLE
  2
DIMSTYLE
  5
A
330
0
100
AcDbSymbolTable
 70
     2
100
AcDbDimStyleTable
 71
     1
340
921
  0
DIMSTYLE
105
45
330
A
100
AcDbSymbolTableRecord
100
AcDbDimStyleTableRecord
  2
STANDARD
 70
     0
289
     0
340
11
  0
DIMSTYLE
105
921
330
A
100
AcDbSymbolTableRecord
100
AcDbDimStyleTableRecord
  2
SANINDUSA
 70
     0
 41
2.0
 42
1.0
 43
1.0
 44
1.0
 73
     0
 74
     0
 77
     1
 78
     8
140
2.0
141
0.0
143
0.03937007874016
147
1.0
171
     3
172
     1
176
   256
177
   256
178
   256
179
     1
271
     1
272
     1
274
     3
278
    44
283
     0
284
     8
340
91F
371
    -1
372
    -1
  0
ENDTAB
  0
TABLE
  2
BLOCK_RECORD
  5
1
330
0
100
AcDbSymbolTable
 70
   130
  0
BLOCK_RECORD
  5
1F
330
1
100
AcDbSymbolTableRecord
100
AcDbBlockTableRecord
  2
*Model_Space
340
22
  0
BLOCK_RECORD
  5
1B
330
1
100
AcDbSymbolTableRecord
100
AcDbBlockTableRecord
  2
*Paper_Space
340
1E
  0
BLOCK_RECORD
  5
23
330
1
100
AcDbSymbolTableRecord
100
AcDbBlockTableRecord
  2
*Paper_Space0
340
26
  0
BLOCK_RECORD
  5
919
330
1
100
AcDbSymbolTableRecord
100
AcDbBlockTableRecord
  2
_DotSmall
340
0
  0
BLOCK_RECORD
  5
922
330
1
100
AcDbSymbolTableRecord
100
AcDbBlockTableRecord
  2
base para cotas
340
0
310
2800000020000000200000000100080000000000000400000000000000000000000000000000000000000000000080000080000000808000800000008000800080800000C0C0C000C0DCC000F0CAA6000020400000206000002080000020A0000020C0000020E00000400000004020000040400000406000004080000040A0
310
000040C0000040E00000600000006020000060400000606000006080000060A0000060C0000060E00000800000008020000080400000806000008080000080A0000080C0000080E00000A0000000A0200000A0400000A0600000A0800000A0A00000A0C00000A0E00000C0000000C0200000C0400000C0600000C0800000C0
310
A00000C0C00000C0E00000E0000000E0200000E0400000E0600000E0800000E0A00000E0C00000E0E00040000000400020004000400040006000400080004000A0004000C0004000E00040200000402020004020400040206000402080004020A0004020C0004020E000404000004040200040404000404060004040800040
310
40A0004040C0004040E00040600000406020004060400040606000406080004060A0004060C0004060E00040800000408020004080400040806000408080004080A0004080C0004080E00040A0000040A0200040A0400040A0600040A0800040A0A00040A0C00040A0E00040C0000040C0200040C0400040C0600040C08000
310
40C0A00040C0C00040C0E00040E0000040E0200040E0400040E0600040E0800040E0A00040E0C00040E0E00080000000800020008000400080006000800080008000A0008000C0008000E00080200000802020008020400080206000802080008020A0008020C0008020E00080400000804020008040400080406000804080
310
008040A0008040C0008040E00080600000806020008060400080606000806080008060A0008060C0008060E00080800000808020008080400080806000808080008080A0008080C0008080E00080A0000080A0200080A0400080A0600080A0800080A0A00080A0C00080A0E00080C0000080C0200080C0400080C0600080C0
310
800080C0A00080C0C00080C0E00080E0000080E0200080E0400080E0600080E0800080E0A00080E0C00080E0E000C0000000C0002000C0004000C0006000C0008000C000A000C000C000C000E000C0200000C0202000C0204000C0206000C0208000C020A000C020C000C020E000C0400000C0402000C0404000C0406000C0
310
408000C040A000C040C000C040E000C0600000C0602000C0604000C0606000C0608000C060A000C060C000C060E000C0800000C0802000C0804000C0806000C0808000C080A000C080C000C080E000C0A00000C0A02000C0A04000C0A06000C0A08000C0A0A000C0A0C000C0A0E000C0C00000C0C02000C0C04000C0C06000
310
C0C08000C0C0A000F0FBFF00A4A0A000808080000000FF0000FF000000FFFF00FF000000FF00FF00FFFF0000FFFFFF00A4A4A4A4A4A4A4A4A4A4A4A4A4A4A4A4A4A4A4A4A4A4A4A4A4A4A4A4A4A4A4A4A4A4A4A4A4A4A4A4A4A4A4A4A4A4A4A4A4A4A4A4A4A4A4A4A4A4A4A4A4A4A4A4A4A4A4A4A4A4A4A4A4A4A4A4A4A4A4
310
A4A4A4A4A4A4A4A4A4A4A4A4A4A4A4A4A4A4A4A4A4A4A4A4A4A4A4A4A4A4A4A4A4A4A4A4A4A4A4A4A4A4A4A4A4A4A4A4A4A4A4A4A4A4A4A4A4A4A4A4A4A4A4A4A4A4A4A4A4A4A4A4A4A4A4A4A4A4A4A4A4A4A4A4A4A4A4A4A4A4A4A4A4A4A4A4A4A4A4A4A4A4A4A4A4A4A4A4A4A4A4A4A4A4A4A4A4A4A4A4A4A4A4A4A4A4A4
310
A4A4A4A4A4A4A4A4A4A4A4A4A4A4A4A4A4A4A4A4A4A4A4A4A4A4A4A4A4A4A4A4A4A4A4A4A4A4A4A4A4A4A4A4A4A4A4A4A4A4A4A4A4A4A4A4A4A4A4A4A4A4A4A4A4A4A4A4A4A4A4A4A4A4A4A4A4A4A4A4A4A4A4A4A4A4A4A4A4A4A4A4A4A4A4A4A4A4A4A4A4A4A4A4A4A4A4A4A4A4A4A4A4A4A4A4A4A4A4A4A4A4A4A4A4A4A4
310
A4A4A4A4A4A4A4A4A4A4A4A4A4A4A4A4A4A4A4A4A4A4A4A4A4A4A4A4A4A4A4A4A4A4A4A4A4A4A4A4A4A4A4A4A4A4A4A4A4A4A4A4A4A4A4A4A4A4A4A4A4A4A4A4A4A4A4A4A4A4A4A4A4A4A4A4A4A4A4A4A4A4A4A4A4A4A4A4A4A4A4A4A4A4A4A4A4A4A4A4A4A4A4A4A4A4A4A4A4A4A4A4A4A4A4A4F9F9F9F9F9F9F9F9F9F9F9
310
F9F9F9F9F9F9F9F9F9F9F9F9F9F9F9F9F9F9F9A4A4F9F9F9F9F9F9F9F9F9F9F9F9F9F9F9F9F9F9F9F9F9F9F9F9F9F9F9F9F9F9A4A4F9F9F9F9F9F9F9F9F9F9F9F9F9F9F9F9F9F9F9F9F9F9F9F9F9F9F9F9F9F9A4A4F9A4A4A4A4A4A4A4A4A4A4A4A4A4A4A4A4A4A4A4A4A4A4A4A4A4A4A4A4F9A4A4A4A4A4A4A4A4A4A4A4A4
310
A4A4A4A4A4A4A4A4A4A4A4A4A4A4A4A4A4A4A4A4A4A4A4A4A4A4A4A4A4A4A4A4A4A4A4A4A4A4A4A4A4A4A4A4A4A4A4A4A4A4A4A4A4A4A4A4A4A4A4A4A4A4A4A4A4A4A4A4A4A4A4A4A4A4A4A4A4A4A4A4A4A4A4A4A4A4A4A4A4A4A4A4A4A4A4A4A4A4A4A4A4A4A4A4A4A4A4A4A4A4A4A4A4A4A4A4A4A4A4A4A4A4A4A4A4A4A4
310
A4A4A4A4A4A4A4A4A4A4A4A4A4A4A4A4A4A4A4A4A4A4A4A4A4A4A4A4A4A4A4A4A4A4A4A4A4A4A4A4A4A4A4A4A4A4A4A4A4A4A4A4A4A4A4A4A4A4A4A4A4A4A4A4A4A4A4A4A4A4A4A4A4A4A4A4A4A4A4A4A4A4A4A4A4A4A4A4A4A4A4A4A4A4A4A4A4A4A4A4A4A4A4A4A4A4A4A4A4A4A4A4A4A4A4A4A4A4A4A4A4A4A4A4A4A4A4
310
A4A4A4A4A4A4A4A4A4A4A4A4A4A4A4A4A4A4A4A4A4A4A4A4A4A4A4A4A4A4A4A4A4A4A4A4A4A4A4A4A4A4A4A4A4A4A4A4A4A4A4A4A4A4A4A4A4A4A4A4A4A4A4A4A4A4A4A4A4A4A4A4A4A4A4A4A4A4A4A4A4A4A4A4A4A4A4A4A4A4A4A4A4A4A4A4A4A4A4A4A4A4A4A4A4A4A4A4A4A4A4A4A4A4A4A4A4A4A4A4A4A4A4A4A4A4A4
310
A4A4A4A4A4A4A4A4A4A4A4A4A4A4A4A4A4A4A4A4A4A4A4A4A4A4A4A4A4A4A4A4A4A4A4A4A4A4A4A4A4A4A4A4A4A4A4A4A4A4A4A4A4A4A4A4
1001
ACAD
1000
DesignCenter Data
1002
{
1070
     1
1070
     4
1002
}
  0
BLOCK_RECORD
  5
AA8
330
1
100
AcDbSymbolTableRecord
100
AcDbBlockTableRecord
  2
_CLOSED
340
0
  0
ENDTAB
  0
ENDSEC
  0
SECTION
  2
BLOCKS
  0
BLOCK
  5
20
330
1F
100
AcDbEntity
  8
0
100
AcDbBlockBegin
  2
*Model_Space
 70
     0
 10
0.0
 20
0.0
 30
0.0
  3
*Model_Space
  1

  0
ENDBLK
  5
21
330
1F
100
AcDbEntity
  8
0
100
AcDbBlockEnd
  0
BLOCK
  5
1C
330
1B
100
AcDbEntity
 67
     1
  8
0
100
AcDbBlockBegin
  2
*Paper_Space
 70
     0
 10
0.0
 20
0.0
 30
0.0
  3
*Paper_Space
  1

  0
ENDBLK
  5
1D
330
1B
100
AcDbEntity
 67
     1
  8
0
100
AcDbBlockEnd
  0
BLOCK
  5
24
330
23
100
AcDbEntity
 67
     1
  8
0
100
AcDbBlockBegin
  2
*Paper_Space0
 70
     0
 10
0.0
 20
0.0
 30
0.0
  3
*Paper_Space0
  1

  0
ENDBLK
  5
25
330
23
100
AcDbEntity
 67
     1
  8
0
100
AcDbBlockEnd
  0
BLOCK
  5
91B
330
919
100
AcDbEntity
  8
0
100
AcDbBlockBegin
  2
_DotSmall
 70
     0
 10
0.0
 20
0.0
 30
0.0
  3
_DotSmall
  1

  0
LWPOLYLINE
  5
91A
330
919
100
AcDbEntity
  8
0
  6
ByBlock
 62
     0
100
AcDbPolyline
 90
        2
 70
     1
 43
0.5
 10
-0.0625
 20
0.0
 42
1.0
 10
0.0625
 20
0.0
 42
1.0
  0
ENDBLK
  5
91C
330
919
100
AcDbEntity
  8
0
100
AcDbBlockEnd
  0
BLOCK
  5
92A
330
922
100
AcDbEntity
  8
0
100
AcDbBlockBegin
  2
base para cotas
 70
     0
 10
0.0
 20
0.0
 30
0.0
  3
base para cotas
  1

  0
LINE
  5
B36
330
922
100
AcDbEntity
  8
cotas
100
AcDbLine
 10
0.0
 20
-30.0
 30
0.0
 11
327.1260136525398
 21
-30.0
 31
0.0
  0
LINE
  5
B37
330
922
100
AcDbEntity
  8
cotas
100
AcDbLine
 10
0.0
 20
-25.0
 30
0.0
 11
327.1260136525398
 21
-25.0
 31
0.0
  0
LINE
  5
B38
330
922
100
AcDbEntity
  8
cotas
100
AcDbLine
 10
0.0
 20
-20.0
 30
0.0
 11
327.1260136525398
 21
-20.0
 31
0.0
  0
LINE
  5
B39
330
922
100
AcDbEntity
  8
cotas
100
AcDbLine
 10
0.0
 20
-15.0
 30
0.0
 11
327.1260136525398
 21
-15.0
 31
0.0
  0
LINE
  5
B3A
330
922
100
AcDbEntity
  8
cotas
100
AcDbLine
 10
0.0
 20
-10.0
 30
0.0
 11
327.1260136525398
 21
-10.0
 31
0.0
  0
LINE
  5
B3B
330
922
100
AcDbEntity
  8
cotas
100
AcDbLine
 10
0.0
 20
0.0
 30
0.0
 11
0.0
 21
-30.0
 31
0.0
  0
LINE
  5
B3C
330
922
100
AcDbEntity
  8
cotas
100
AcDbLine
 10
327.1260136525398
 20
-30.0
 30
0.0
 11
327.1260136525398
 21
0.0
 31
0.0
  0
ENDBLK
  5
92B
330
922
100
AcDbEntity
  8
0
100
AcDbBlockEnd
  0
BLOCK
  5
AAD
330
AA8
100
AcDbEntity
  8
0
100
AcDbBlockBegin
  2
_CLOSED
 70
     0
 10
0.0
 20
0.0
 30
0.0
  3
_CLOSED
  1

  0
LINE
  5
AA9
330
AA8
100
AcDbEntity
  8
0
100
AcDbLine
 10
-1.0
 20
0.166667
 30
0.0
 11
0.0
 21
0.0
 31
0.0
  0
LINE
  5
AAA
330
AA8
100
AcDbEntity
  8
0
100
AcDbLine
 10
0.0
 20
0.0
 30
0.0
 11
-1.0
 21
-0.166667
 31
0.0
  0
LINE
  5
AAB
330
AA8
100
AcDbEntity
  8
0
100
AcDbLine
 10
-1.0
 20
0.166667
 30
0.0
 11
-1.0
 21
-0.166667
 31
0.0
  0
LINE
  5
AAC
330
AA8
100
AcDbEntity
  8
0
100
AcDbLine
 10
0.0
 20
0.0
 30
0.0
 11
-1.0
 21
0.0
 31
0.0
  0
ENDBLK
  5
AAE
330
AA8
100
AcDbEntity
  8
0
100
AcDbBlockEnd
  0
ENDSEC
  0
SECTION
  2
ENTITIES
  0
LINE
  5
1105
330
1F
100
AcDbEntity
  8
SANINDUSA
100
AcDbLine
 10
1612.109673060012
 20
877.0056870098954
 30
0.0
 11
1612.34001408174
 21
876.9555502811686
 31
0.0
  0
LINE
  5
1106
330
1F
100
AcDbEntity
  8
SANINDUSA
100
AcDbLine
 10
1612.34001408174
 20
877.2641469996868
 30
0.0
 11
1612.109673060012
 21
877.2140102709599
 31
0.0
  0
LINE
  5
1107
330
1F
100
AcDbEntity
  8
SANINDUSA
100
AcDbLine
 10
1612.357735527422
 20
876.9398486404277
 30
0.0
 11
1611.567735527422
 21
876.9398486404277
 31
0.0
  0
LINE
  5
110A
330
1F
100
AcDbEntity
  8
SANINDUSA
100
AcDbLine
 10
1612.357735527422
 20
877.3898486404275
 30
0.0
 11
1611.567735527422
 21
877.3898486404275
 31
0.0
  0
LINE
  5
110C
330
1F
100
AcDbEntity
  8
SANINDUSA
100
AcDbLine
 10
1612.353575140472
 20
876.9470887171847
 30
0.0
 11
1611.856058172753
 21
876.9470887171847
 31
0.0
  0
LINE
  5
110D
330
1F
100
AcDbEntity
  8
SANINDUSA
100
AcDbLine
 10
1611.856058172753
 20
877.2726085636705
 30
0.0
 11
1612.353575140472
 21
877.2726085636705
 31
0.0
  0
LINE
  5
110E
330
1F
100
AcDbEntity
  8
SANINDUSA
100
AcDbLine
 10
1613.327106841828
 20
877.0869920014128
 30
0.0
 11
1612.537106841828
 21
877.0869920014128
 31
0.0
  0
LINE
  5
110F
330
1F
100
AcDbEntity
  8
SANINDUSA
100
AcDbLine
 10
1612.537106841828
 20
877.1819920014127
 30
0.0
 11
1613.327106841828
 21
877.1819920014127
 31
0.0
  0
LWPOLYLINE
  5
1112
330
1F
100
AcDbEntity
  8
SANINDUSA
100
AcDbPolyline
 90
        3
 70
   128
 43
0.0
 10
1613.114312020002
 20
877.0603398626411
 10
1613.116778141214
 20
877.0797633334161
 10
1613.117590082318
 20
877.0869920014128
  0
LINE
  5
1113
330
1F
100
AcDbEntity
  8
SANINDUSA
100
AcDbLine
 10
1613.089751110234
 20
877.0628582740886
 30
0.0
 11
1613.089751110234
 21
877.0651869523435
 31
0.0
  0
LINE
  5
1116
330
1F
100
AcDbEntity
  8
SANINDUSA
100
AcDbLine
 10
1613.058349971738
 20
877.0628582740886
 30
0.0
 11
1613.058349971738
 21
877.0651869523435
 31
0.0
  0
LINE
  5
111A
330
1F
100
AcDbEntity
  8
SANINDUSA
100
AcDbLine
 10
1612.099673060012
 20
877.2140098939198
 30
0.0
 11
1612.099673060012
 21
877.0056873869355
 31
0.0
  0
LINE
  5
111B
330
1F
100
AcDbEntity
  8
SANINDUSA
100
AcDbLine
 10
1612.109673060012
 20
877.0056870098954
 30
0.0
 11
1612.109673060012
 21
877.2140102709599
 31
0.0
  0
LINE
  5
111D
330
1F
100
AcDbEntity
  8
SANINDUSA
100
AcDbLine
 10
1611.562735527423
 20
876.9448486404277
 30
0.0
 11
1611.562735527423
 21
877.3898486404275
 31
0.0
  0
LINE
  5
111F
330
1F
100
AcDbEntity
  8
SANINDUSA
100
AcDbLine
 10
1611.856058172753
 20
876.9470887171847
 30
0.0
 11
1611.856058172753
 21
877.2726085636705
 31
0.0
  0
ARC
  5
1120
330
1F
100
AcDbEntity
  8
SANINDUSA
100
AcDbCircle
 10
1611.567735527422
 20
876.9448486404277
 30
0.0
 40
0.005
100
AcDbArc
 50
180.0
 51
270.0
  0
LINE
  5
1124
330
1F
100
AcDbEntity
  8
SANINDUSA
100
AcDbLine
 10
1611.869603362603
 20
876.9555502811686
 30
0.0
 11
1612.099673060012
 21
877.0056873869355
 31
0.0
  0
LWPOLYLINE
  5
1126
330
1F
100
AcDbEntity
  8
SANINDUSA
100
AcDbPolyline
 90
        7
 70
   128
 43
0.0
 10
1611.857693077801
 20
876.9503585272822
 10
1611.858927950155
 20
876.9513997144954
 10
1611.860493135255
 20
876.9523862974418
 10
1611.86236880804
 20
876.9533057797925
 10
1611.864531210727
 20
876.9541465151334
 10
1611.866952953733
 20
876.9548978544818
 10
1611.869603362603
 20
876.9555502811686
  0
LINE
  5
112A
330
1F
100
AcDbEntity
  8
SANINDUSA
100
AcDbLine
 10
1611.856058172753
 20
876.9470887171847
 30
0.0
 11
1611.857693077801
 21
876.9503585272822
 31
0.0
  0
LWPOLYLINE
  5
112B
330
1F
100
AcDbEntity
  8
SANINDUSA
100
AcDbPolyline
 90
        6
 70
   128
 43
0.0
 10
1612.104670829179
 20
877.0028850057778
 10
1612.106403762541
 20
877.0031695984984
 10
1612.107803942592
 20
877.0036060472074
 10
1612.108832666707
 20
877.0041822879491
 10
1612.109461499741
 20
877.0048823927519
 10
1612.109673060012
 20
877.0056870098954
  0
LWPOLYLINE
  5
112D
330
1F
100
AcDbEntity
  8
SANINDUSA
100
AcDbPolyline
 90
        6
 70
   128
 43
0.0
 10
1612.099673060012
 20
877.0056873869355
 10
1612.099884433687
 20
877.0048826610771
 10
1612.100512711064
 20
877.0041824586499
 10
1612.10154052274
 20
877.0036061374998
 10
1612.10293945376
 20
877.0031696306427
 10
1612.104670829179
 20
877.0028850057778
  0
LINE
  5
112E
330
1F
100
AcDbEntity
  8
SANINDUSA
100
AcDbLine
 10
1611.562735527423
 20
877.3898486404275
 30
0.0
 11
1611.567735527422
 21
877.3898486404275
 31
0.0
  0
LINE
  5
1130
330
1F
100
AcDbEntity
  8
SANINDUSA
100
AcDbLine
 10
1612.099673060012
 20
877.2140098939198
 30
0.0
 11
1611.869603362603
 21
877.2641469996868
 31
0.0
  0
LWPOLYLINE
  5
1131
330
1F
100
AcDbEntity
  8
SANINDUSA
100
AcDbPolyline
 90
        7
 70
   128
 43
0.0
 10
1611.869603362603
 20
877.2641469996868
 10
1611.866952953733
 20
877.2647994263735
 10
1611.864531210727
 20
877.2655507657217
 10
1611.86236880804
 20
877.2663915010628
 10
1611.860493135255
 20
877.2673109834135
 10
1611.858927950155
 20
877.2682975663597
 10
1611.857693077801
 20
877.2693387535731
  0
LINE
  5
1136
330
1F
100
AcDbEntity
  8
SANINDUSA
100
AcDbLine
 10
1611.857693077801
 20
877.2693387535731
 30
0.0
 11
1611.856058172753
 21
877.2726085636705
 31
0.0
  0
LWPOLYLINE
  5
1138
330
1F
100
AcDbEntity
  8
SANINDUSA
100
AcDbPolyline
 90
        6
 70
   128
 43
0.0
 10
1612.109673060012
 20
877.2140102709599
 10
1612.109461499741
 20
877.2148148881035
 10
1612.108832666707
 20
877.215514992906
 10
1612.107803942592
 20
877.2160912336479
 10
1612.106403762541
 20
877.2165276823569
 10
1612.104670829179
 20
877.2168122750775
  0
LWPOLYLINE
  5
1139
330
1F
100
AcDbEntity
  8
SANINDUSA
100
AcDbPolyline
 90
        6
 70
   128
 43
0.0
 10
1612.104670829179
 20
877.2168122750775
 10
1612.10293945376
 20
877.2165276502127
 10
1612.10154052274
 20
877.2160911433555
 10
1612.100512711064
 20
877.2155148222054
 10
1612.099884433687
 20
877.2148146197782
 10
1612.099673060012
 20
877.2140098939198
  0
CIRCLE
  5
113B
330
1F
100
AcDbEntity
  8
SANINDUSA
100
AcDbCircle
 10
1612.104672107586
 20
877.3227486404277
 30
0.0
 40
0.0175
  0
LINE
  5
113D
330
1F
100
AcDbEntity
  8
SANINDUSA
100
AcDbLine
 10
1613.104044374417
 20
877.0478750063885
 30
0.0
 11
1613.044044374417
 21
877.0478750063885
 31
0.0
  0
LINE
  5
1140
330
1F
100
AcDbEntity
  8
SANINDUSA
100
AcDbLine
 10
1613.109812127146
 20
877.0558750063885
 30
0.0
 11
1613.038120950953
 21
877.0558750063885
 31
0.0
  0
LINE
  5
1141
330
1F
100
AcDbEntity
  8
SANINDUSA
100
AcDbLine
 10
1613.089751110234
 20
877.0628582740886
 30
0.0
 11
1613.058349971738
 21
877.0628582740886
 31
0.0
  0
LWPOLYLINE
  5
1143
330
1F
100
AcDbEntity
  8
SANINDUSA
100
AcDbPolyline
 90
        9
 70
   128
 43
0.0
 10
1613.038453554101
 20
877.0558060263825
 10
1613.037731743071
 20
877.0559557258952
 10
1613.036864384076
 20
877.0561958215752
 10
1613.036054116285
 20
877.0565875149703
 10
1613.03532719101
 20
877.0571181158738
 10
1613.034707159408
 20
877.0577704337087
 10
1613.034214109459
 20
877.0585233344753
 10
1613.033864015153
 20
877.059352425455
 10
1613.033668218955
 20
877.0602308454954
  0
LWPOLYLINE
  5
114D
330
1F
100
AcDbEntity
  8
SANINDUSA
100
AcDbPolyline
 90
        3
 70
   128
 43
0.0
 10
1613.058349971738
 20
877.0628582740886
 10
1613.056239047491
 20
877.0616382735219
 10
1613.046178246384
 20
877.0559547878621
  0
LWPOLYLINE
  5
1150
330
1F
100
AcDbEntity
  8
SANINDUSA
100
AcDbPolyline
 90
       10
 70
   128
 43
0.0
 10
1613.038453554101
 20
877.0558060263825
 10
1613.038515430412
 20
877.0557927571235
 10
1613.038875051954
 20
877.0556982424377
 10
1613.039307544809
 20
877.055527412374
 10
1613.039811481851
 20
877.0552511379284
 10
1613.040388278152
 20
877.0548176936474
 10
1613.04098200331
 20
877.0541924551567
 10
1613.041520002575
 20
877.053349022881
 10
1613.041900448292
 20
877.0523203019608
 10
1613.041942092634
 20
877.0519920014129
  0
ARC
  5
1151
330
1F
100
AcDbEntity
  8
SANINDUSA
100
AcDbCircle
 10
1613.044044374417
 20
877.0498750063886
 30
0.0
 40
0.002
100
AcDbArc
 50
180.0
 51
270.0
  0
LINE
  5
1152
330
1F
100
AcDbEntity
  8
SANINDUSA
100
AcDbLine
 10
1613.042044374417
 20
877.0511284209375
 30
0.0
 11
1613.042044374417
 21
877.0498750063886
 31
0.0
  0
LWPOLYLINE
  5
1157
330
1F
100
AcDbEntity
  8
SANINDUSA
100
AcDbPolyline
 90
        9
 70
   128
 43
0.0
 10
1613.109923950197
 20
877.0559067594815
 10
1613.110746993839
 20
877.0560719598496
 10
1613.111530700642
 20
877.0563737721326
 10
1613.112252779819
 20
877.0568036119552
 10
1613.112892693444
 20
877.0573492534849
 10
1613.113432240605
 20
877.0579951771694
 10
1613.11385607509
 20
877.0587230111539
 10
1613.114152141875
 20
877.0595120538292
 10
1613.114312020002
 20
877.0603398626411
  0
LWPOLYLINE
  5
115D
330
1F
100
AcDbEntity
  8
SANINDUSA
100
AcDbPolyline
 90
        3
 70
   128
 43
0.0
 10
1613.101980734195
 20
877.0559547878621
 10
1613.095200922296
 20
877.0597745018369
 10
1613.089751110234
 20
877.0628582740886
  0
LWPOLYLINE
  5
1160
330
1F
100
AcDbEntity
  8
SANINDUSA
100
AcDbPolyline
 90
        3
 70
   128
 43
0.0
 10
1613.106044374417
 20
877.0511326783209
 10
1613.106104279782
 20
877.0519007014605
 10
1613.106128956703
 20
877.0519920014129
  0
ARC
  5
1161
330
1F
100
AcDbEntity
  8
SANINDUSA
100
AcDbCircle
 10
1613.104044374417
 20
877.0498750063886
 30
0.0
 40
0.002
100
AcDbArc
 50
270.0
 51
0.0
  0
LINE
  5
1162
330
1F
100
AcDbEntity
  8
SANINDUSA
100
AcDbLine
 10
1613.106044374417
 20
877.0498750063886
 30
0.0
 11
1613.106044374417
 21
877.0511361561762
 31
0.0
  0
LINE
  5
1163
330
1F
100
AcDbEntity
  8
SANINDUSA
100
AcDbLine
 10
1612.532106841828
 20
877.0919920014128
 30
0.0
 11
1612.532106841828
 21
877.1769920014127
 31
0.0
  0
ARC
  5
1165
330
1F
100
AcDbEntity
  8
SANINDUSA
100
AcDbCircle
 10
1612.537106841828
 20
877.0919920014128
 30
0.0
 40
0.005
100
AcDbArc
 50
180.0
 51
270.0
  0
ARC
  5
1168
330
1F
100
AcDbEntity
  8
SANINDUSA
100
AcDbCircle
 10
1612.537106841828
 20
877.1769920014127
 30
0.0
 40
0.005
100
AcDbArc
 50
90.0
 51
180.0
  0
LWPOLYLINE
  5
116E
330
1F
100
AcDbEntity
  8
SANINDUSA
100
AcDbPolyline
 90
        3
 70
   128
 43
0.0
 10
1613.055737855066
 20
877.0870177478567
 10
1613.05704848769
 20
877.0761027445079
 10
1613.058349971738
 20
877.0651869523435
  0
LWPOLYLINE
  5
1171
330
1F
100
AcDbEntity
  8
SANINDUSA
100
AcDbPolyline
 90
        3
 70
   128
 43
0.0
 10
1613.089751110234
 20
877.0651869523435
 10
1613.091039866483
 20
877.0760920885106
 10
1613.092341610286
 20
877.0869961327278
  0
LINE
  5
1173
330
1F
100
AcDbEntity
  8
SANINDUSA
100
AcDbLine
 10
1612.362735527423
 20
877.3898486404275
 30
0.0
 11
1612.362735527423
 21
876.9448486404277
 31
0.0
  0
LINE
  5
1175
330
1F
100
AcDbEntity
  8
SANINDUSA
100
AcDbLine
 10
1612.353575140472
 20
877.2726085636705
 30
0.0
 11
1612.353575140472
 21
876.9470887171847
 31
0.0
  0
LWPOLYLINE
  5
1177
330
1F
100
AcDbEntity
  8
SANINDUSA
100
AcDbPolyline
 90
        7
 70
   128
 43
0.0
 10
1612.34001408174
 20
876.9555502811686
 10
1612.342669015918
 20
876.9548974730684
 10
1612.345094747263
 20
876.9541456499574
 10
1612.347260517505
 20
876.9533043449511
 10
1612.349138864683
 20
876.9523842257958
 10
1612.350705971356
 20
876.9513969596006
 10
1612.351941966615
 20
876.9503550648991
  0
ARC
  5
1178
330
1F
100
AcDbEntity
  8
SANINDUSA
100
AcDbCircle
 10
1612.357735527422
 20
876.9448486404277
 30
0.0
 40
0.005
100
AcDbArc
 50
270.0
 51
0.0
  0
LINE
  5
117D
330
1F
100
AcDbEntity
  8
SANINDUSA
100
AcDbLine
 10
1612.351941966615
 20
876.9503550648991
 30
0.0
 11
1612.353575140472
 21
876.9470887171847
 31
0.0
  0
LWPOLYLINE
  5
1180
330
1F
100
AcDbEntity
  8
SANINDUSA
100
AcDbPolyline
 90
        7
 70
   128
 43
0.0
 10
1612.351941966615
 20
877.2693422159562
 10
1612.350705971356
 20
877.2683003212547
 10
1612.349138864683
 20
877.2673130550595
 10
1612.347260517505
 20
877.266392935904
 10
1612.345094747263
 20
877.2655516308979
 10
1612.342669015918
 20
877.264799807787
 10
1612.34001408174
 20
877.2641469996868
  0
LINE
  5
1184
330
1F
100
AcDbEntity
  8
SANINDUSA
100
AcDbLine
 10
1612.353575140472
 20
877.2726085636705
 30
0.0
 11
1612.351941966615
 21
877.2693422159562
 31
0.0
  0
LINE
  5
1185
330
1F
100
AcDbEntity
  8
SANINDUSA
100
AcDbLine
 10
1612.357735527422
 20
877.3898486404275
 30
0.0
 11
1612.362735527423
 21
877.3898486404275
 31
0.0
  0
LINE
  5
1186
330
1F
100
AcDbEntity
  8
SANINDUSA
100
AcDbLine
 10
1613.332106841828
 20
877.1769920014127
 30
0.0
 11
1613.332106841828
 21
877.0919920014128
 31
0.0
  0
ARC
  5
1189
330
1F
100
AcDbEntity
  8
SANINDUSA
100
AcDbCircle
 10
1613.327106841828
 20
877.0919920014128
 30
0.0
 40
0.005
100
AcDbArc
 50
270.0
 51
0.0
  0
ARC
  5
118B
330
1F
100
AcDbEntity
  8
SANINDUSA
100
AcDbCircle
 10
1613.327106841828
 20
877.1769920014127
 30
0.0
 40
0.005
100
AcDbArc
 50
0.0
 51
90.0
  0
LWPOLYLINE
  5
118E
330
1F
100
AcDbEntity
  8
SANINDUSA
100
AcDbPolyline
 90
       10
 70
   128
 43
0.0
 10
1613.106128956703
 20
877.0519920014129
 10
1613.106378542189
 20
877.0529154206167
 10
1613.106809148594
 20
877.0537681880455
 10
1613.107326811398
 20
877.0544458799944
 10
1613.107862446729
 20
877.0549490485043
 10
1613.108367889422
 20
877.0553028059753
 10
1613.108820748868
 20
877.0555414680911
 10
1613.109216703763
 20
877.0556956878632
 10
1613.109546085184
 20
877.0557994615431
 10
1613.109923950197
 20
877.0559067594815
  0
LWPOLYLINE
  5
118F
330
1F
100
AcDbEntity
  8
SANINDUSA
100
AcDbPolyline
 90
        3
 70
   128
 43
0.0
 10
1613.041941408517
 20
877.0519920014129
 10
1613.042043275052
 20
877.0511755303331
 10
1613.042044374417
 20
877.0511284209375
  0
LINE
  5
11F7
330
1F
100
AcDbEntity
  8
SANINDUSA
100
AcDbLine
 10
1613.030543682578
 20
877.0869920014128
 30
0.0
 11
1613.033677709716
 21
877.0602345862519
 31
0.0
  0
LINE
  5
11FA
330
1F
100
AcDbEntity
  8
SANINDUSA
100
AcDbLine
 10
1611.779743548442
 20
877.0321090804143
 30
0.0
 11
1611.779743548442
 21
877.2649382004409
 31
0.0
  0
LINE
  5
11FC
330
1F
100
AcDbEntity
  8
SANINDUSA
100
AcDbLine
 10
1611.649999354871
 20
877.2649382004409
 30
0.0
 11
1611.649999354871
 21
877.0321090804143
 31
0.0
  0
LINE
  5
11FE
330
1F
100
AcDbEntity
  8
SANINDUSA
100
AcDbLine
 10
1611.654998593347
 20
877.0271098419385
 30
0.0
 11
1611.774744309967
 21
877.0271098419385
 31
0.0
  0
ARC
  5
1201
330
1F
100
AcDbEntity
  8
SANINDUSA
100
AcDbCircle
 10
1611.654996126539
 20
877.0321066136068
 30
0.0
 40
0.0049967722769983
100
AcDbArc
 50
179.971714206716
 51
270.0282857997977
  0
ARC
  5
1206
330
1F
100
AcDbEntity
  8
SANINDUSA
100
AcDbCircle
 10
1611.774746776774
 20
877.0321066136068
 30
0.0
 40
0.0049967722769982
100
AcDbArc
 50
269.9717142002023
 51
0.0282857932839314
  0
LINE
  5
1208
330
1F
100
AcDbEntity
  8
SANINDUSA
100
AcDbLine
 10
1611.774744309967
 20
877.2699374389167
 30
0.0
 11
1611.654998593347
 21
877.2699374389167
 31
0.0
  0
ARC
  5
120B
330
1F
100
AcDbEntity
  8
SANINDUSA
100
AcDbCircle
 10
1611.654996126539
 20
877.2649406672487
 30
0.0
 40
0.0049967722769991
100
AcDbArc
 50
89.97171420020229
 51
180.0282857997977
  0
ARC
  5
1213
330
1F
100
AcDbEntity
  8
SANINDUSA
100
AcDbCircle
 10
1611.774746776774
 20
877.2649406672487
 30
0.0
 40
0.0049967722769985
100
AcDbArc
 50
359.9717142067161
 51
90.0282857997977
  0
LINE
  5
1227
330
1F
100
AcDbEntity
  8
SANINDUSA
100
AcDbLine
 10
1612.103672107586
 20
877.1897436843083
 30
0.0
 11
1612.103672107586
 21
877.0297012481009
 31
0.0
  0
LINE
  5
1228
330
1F
100
AcDbEntity
  8
SANINDUSA
100
AcDbLine
 10
1612.105672107586
 20
877.0297012481009
 30
0.0
 11
1612.105672107586
 21
877.1897436843083
 31
0.0
  0
LINE
  5
1229
330
1F
100
AcDbEntity
  8
SANINDUSA
100
AcDbLine
 10
1612.103672107586
 20
877.0297012481009
 30
0.0
 11
1612.105672107586
 21
877.0297012481009
 31
0.0
  0
LINE
  5
122A
330
1F
100
AcDbEntity
  8
SANINDUSA
100
AcDbLine
 10
1612.105672107586
 20
877.1897436843083
 30
0.0
 11
1612.103672107586
 21
877.1897436843083
 31
0.0
  0
LINE
  5
122C
330
1F
100
AcDbEntity
  8
SANINDUSA
100
AcDbLine
 10
1614.2632824172
 20
877.1819461005717
 30
0.0
 11
1614.588802263685
 21
877.1819461005717
 31
0.0
  0
LINE
  5
122E
330
1F
100
AcDbEntity
  8
SANINDUSA
100
AcDbLine
 10
1614.51708477665
 20
877.0979461005717
 30
0.0
 11
1614.345043028902
 21
877.0979461005717
 31
0.0
  0
LINE
  5
122F
330
1F
100
AcDbEntity
  8
SANINDUSA
100
AcDbLine
 10
1614.168947671928
 20
877.0869461005716
 30
0.0
 11
1614.147042340442
 21
877.0869461005716
 31
0.0
  0
LINE
  5
1232
330
1F
100
AcDbEntity
  8
SANINDUSA
100
AcDbLine
 10
1614.231637001499
 20
877.1819461005717
 30
0.0
 11
1614.2632824172
 21
877.1819461005717
 31
0.0
  0
LINE
  5
1233
330
1F
100
AcDbEntity
  8
SANINDUSA
100
AcDbLine
 10
1614.231637001499
 20
877.1699461005718
 30
0.0
 11
1614.255285912875
 21
877.1699461005718
 31
0.0
  0
LINE
  5
1235
330
1F
100
AcDbEntity
  8
SANINDUSA
100
AcDbLine
 10
1614.175575714166
 20
877.1228800674258
 30
0.0
 11
1614.177794015602
 21
877.165207780353
 31
0.0
  0
LINE
  5
1236
330
1F
100
AcDbEntity
  8
SANINDUSA
100
AcDbLine
 10
1614.146042340442
 20
877.1229324033821
 30
0.0
 11
1614.146042340442
 21
877.1809461005718
 31
0.0
  0
LINE
  5
1238
330
1F
100
AcDbEntity
  8
SANINDUSA
100
AcDbLine
 10
1614.147042340442
 20
877.1819461005717
 30
0.0
 11
1614.194637767148
 21
877.1819461005717
 31
0.0
  0
LINE
  5
1239
330
1F
100
AcDbEntity
  8
SANINDUSA
100
AcDbLine
 10
1614.231637001499
 20
877.1699461005718
 30
0.0
 11
1614.194637767148
 21
877.1699461005718
 31
0.0
  0
LINE
  5
123A
330
1F
100
AcDbEntity
  8
SANINDUSA
100
AcDbLine
 10
1614.194637767148
 20
877.1819461005717
 30
0.0
 11
1614.231637001499
 21
877.1819461005717
 31
0.0
  0
LINE
  5
123B
330
1F
100
AcDbEntity
  8
SANINDUSA
100
AcDbLine
 10
1614.195637789024
 20
877.1709461005718
 30
0.0
 11
1614.195637789024
 21
877.1809461005718
 31
0.0
  0
LWPOLYLINE
  5
123C
330
1F
100
AcDbEntity
  8
SANINDUSA
100
AcDbPolyline
 90
        7
 70
   128
 43
0.0
 10
1614.194637767148
 20
877.1819461005717
 10
1614.194793990224
 20
877.1819338228855
 10
1614.194996981097
 20
877.1818793587273
 10
1614.195285653597
 20
877.1817078493169
 10
1614.195501282409
 20
877.1814504553718
 10
1614.195619553295
 20
877.1811362007799
 10
1614.195637789024
 20
877.1809461005718
  0
ARC
  5
123F
330
1F
100
AcDbEntity
  8
SANINDUSA
100
AcDbCircle
 10
1614.182787163276
 20
877.1649461005717
 30
0.0
 40
0.005
100
AcDbArc
 50
90.0
 51
176.999999996727
  0
LINE
  5
1240
330
1F
100
AcDbEntity
  8
SANINDUSA
100
AcDbLine
 10
1614.182787163276
 20
877.1699461005718
 30
0.0
 11
1614.194637767148
 21
877.1699461005718
 31
0.0
  0
LWPOLYLINE
  5
1241
330
1F
100
AcDbEntity
  8
SANINDUSA
100
AcDbPolyline
 90
        7
 70
   128
 43
0.0
 10
1614.195637789024
 20
877.1709461005718
 10
1614.195587612952
 20
877.1706333190067
 10
1614.195430539577
 20
877.1703365605395
 10
1614.195184089956
 20
877.1701085182673
 10
1614.194996981097
 20
877.1700128424162
 10
1614.194667804876
 20
877.1699465517873
 10
1614.194637767148
 20
877.1699461005718
  0
LINE
  5
1242
330
1F
100
AcDbEntity
  8
SANINDUSA
100
AcDbLine
 10
1614.230636979623
 20
877.1809461005718
 30
0.0
 11
1614.230636979623
 21
877.1709461005718
 31
0.0
  0
LWPOLYLINE
  5
1243
330
1F
100
AcDbEntity
  8
SANINDUSA
100
AcDbPolyline
 90
        7
 70
   128
 43
0.0
 10
1614.230636979623
 20
877.1809461005718
 10
1614.230639447772
 20
877.1810163152014
 10
1614.230676147115
 20
877.1812232271772
 10
1614.230822042708
 20
877.1815256442909
 10
1614.231059815199
 20
877.1817627217856
 10
1614.231362661929
 20
877.1819077350979
 10
1614.231637001499
 20
877.1819461005717
  0
LWPOLYLINE
  5
1244
330
1F
100
AcDbEntity
  8
SANINDUSA
100
AcDbPolyline
 90
        7
 70
   128
 43
0.0
 10
1614.231637001499
 20
877.1699461005718
 10
1614.231332341895
 20
877.1699936372225
 10
1614.231034231971
 20
877.1701481754881
 10
1614.23088076984
 20
877.1702917777496
 10
1614.230706811956
 20
877.1705789696419
 10
1614.230637722855
 20
877.1709075534872
 10
1614.230636979623
 20
877.1709461005718
  0
LINE
  5
1248
330
1F
100
AcDbEntity
  8
SANINDUSA
100
AcDbLine
 10
1614.146042340442
 20
877.1229324033821
 30
0.0
 11
1614.146042340442
 21
877.1009460630503
 31
0.0
  0
LINE
  5
1249
330
1F
100
AcDbEntity
  8
SANINDUSA
100
AcDbLine
 10
1614.173940819602
 20
877.0916844207905
 30
0.0
 11
1614.174423459878
 21
877.1008937458548
 31
0.0
  0
LINE
  5
124A
330
1F
100
AcDbEntity
  8
SANINDUSA
100
AcDbLine
 10
1614.175575714166
 20
877.1228800674258
 30
0.0
 11
1614.174423459878
 21
877.1008937458548
 31
0.0
  0
LINE
  5
124E
330
1F
100
AcDbEntity
  8
SANINDUSA
100
AcDbLine
 10
1614.27401959551
 20
877.1468923461434
 30
0.0
 11
1614.285546365277
 21
877.0867578447267
 31
0.0
  0
LINE
  5
124F
330
1F
100
AcDbEntity
  8
SANINDUSA
100
AcDbLine
 10
1614.260196512983
 20
877.1658873797964
 30
0.0
 11
1614.280514839727
 21
877.0598878263228
 31
0.0
  0
ARC
  5
1254
330
1F
100
AcDbEntity
  8
SANINDUSA
100
AcDbCircle
 10
1614.2632824172
 20
877.1769461005717
 30
0.0
 40
0.0050000000000001
100
AcDbArc
 50
32.20395311497848
 51
90.0
  0
ARC
  5
1258
330
1F
100
AcDbEntity
  8
SANINDUSA
100
AcDbCircle
 10
1614.255285912875
 20
877.1649461005717
 30
0.0
 40
0.005
100
AcDbArc
 50
10.85101477090525
 51
90.0
  0
LINE
  5
1259
330
1F
100
AcDbEntity
  8
SANINDUSA
100
AcDbLine
 10
1614.342290331149
 20
877.0658291055475
 30
0.0
 11
1614.296295320233
 21
877.0658291055475
 31
0.0
  0
LINE
  5
125A
330
1F
100
AcDbEntity
  8
SANINDUSA
100
AcDbLine
 10
1614.296295320233
 20
877.0478291055475
 30
0.0
 11
1614.342290331149
 21
877.0478291055475
 31
0.0
  0
LINE
  5
125B
330
1F
100
AcDbEntity
  8
SANINDUSA
100
AcDbLine
 10
1614.345043028902
 20
877.0859461005716
 30
0.0
 11
1614.315239855904
 21
877.0859461005716
 31
0.0
  0
LINE
  5
125C
330
1F
100
AcDbEntity
  8
SANINDUSA
100
AcDbLine
 10
1614.345043028902
 20
877.0979461005717
 30
0.0
 11
1614.318948057803
 21
877.0979461005717
 31
0.0
  0
ARC
  5
125E
330
1F
100
AcDbEntity
  8
SANINDUSA
100
AcDbCircle
 10
1614.285425439836
 20
877.0608291055475
 30
0.0
 40
0.0050000000000002
100
AcDbArc
 50
190.8510147709052
 51
250.9310268553371
  0
LINE
  5
125F
330
1F
100
AcDbEntity
  8
SANINDUSA
100
AcDbLine
 10
1614.297295320233
 20
877.0648291055476
 30
0.0
 11
1614.297295320233
 21
877.0488291055475
 31
0.0
  0
LINE
  5
1261
330
1F
100
AcDbEntity
  8
SANINDUSA
100
AcDbLine
 10
1614.290384573977
 20
877.0658291055475
 30
0.0
 11
1614.296295320233
 21
877.0658291055475
 31
0.0
  0
LINE
  5
1262
330
1F
100
AcDbEntity
  8
SANINDUSA
100
AcDbLine
 10
1614.285546365277
 20
877.0867578447267
 30
0.0
 11
1614.289402453955
 21
877.0666408497026
 31
0.0
  0
LINE
  5
1263
330
1F
100
AcDbEntity
  8
SANINDUSA
100
AcDbLine
 10
1614.296295320233
 20
877.0478291055475
 30
0.0
 11
1614.289266184245
 21
877.0478291055475
 31
0.0
  0
LINE
  5
1264
330
1F
100
AcDbEntity
  8
SANINDUSA
100
AcDbLine
 10
1614.346043028902
 20
877.0869461005716
 30
0.0
 11
1614.346043028902
 21
877.0969461005718
 31
0.0
  0
LINE
  5
1265
330
1F
100
AcDbEntity
  8
SANINDUSA
100
AcDbLine
 10
1614.356393710567
 20
877.0558291055476
 30
0.0
 11
1614.377403383512
 21
877.0558291055476
 31
0.0
  0
LINE
  5
1266
330
1F
100
AcDbEntity
  8
SANINDUSA
100
AcDbLine
 10
1614.342290331149
 20
877.0658291055475
 30
0.0
 11
1614.377145451753
 21
877.0658291055475
 31
0.0
  0
LINE
  5
1267
330
1F
100
AcDbEntity
  8
SANINDUSA
100
AcDbLine
 10
1614.341290331149
 20
877.0488291055475
 30
0.0
 11
1614.341290331149
 21
877.0648291055476
 31
0.0
  0
LINE
  5
1268
330
1F
100
AcDbEntity
  8
SANINDUSA
100
AcDbLine
 10
1614.349319467138
 20
877.0478291055475
 30
0.0
 11
1614.342290331149
 21
877.0478291055475
 31
0.0
  0
LINE
  5
1269
330
1F
100
AcDbEntity
  8
SANINDUSA
100
AcDbLine
 10
1614.533974740576
 20
877.099276804946
 30
0.0
 11
1614.584571481693
 21
877.1796107738607
 31
0.0
  0
LINE
  5
126B
330
1F
100
AcDbEntity
  8
SANINDUSA
100
AcDbLine
 10
1614.50608477665
 20
877.0969461005718
 30
0.0
 11
1614.50608477665
 21
877.0869461005716
 31
0.0
  0
LINE
  5
126C
330
1F
100
AcDbEntity
  8
SANINDUSA
100
AcDbLine
 10
1614.532790596616
 20
877.0979461005717
 30
0.0
 11
1614.50708477665
 21
877.0979461005717
 31
0.0
  0
LINE
  5
126F
330
1F
100
AcDbEntity
  8
SANINDUSA
100
AcDbLine
 10
1614.596042340442
 20
877.1769461005717
 30
0.0
 11
1614.596042340442
 21
877.0919461005716
 31
0.0
  0
LINE
  5
1273
330
1F
100
AcDbEntity
  8
SANINDUSA
100
AcDbLine
 10
1614.588802263685
 20
877.1819461005717
 30
0.0
 11
1614.591042340443
 21
877.1819461005717
 31
0.0
  0
ARC
  5
1274
330
1F
100
AcDbEntity
  8
SANINDUSA
100
AcDbCircle
 10
1614.591042340443
 20
877.1769461005717
 30
0.0
 40
0.005
100
AcDbArc
 50
0.0
 51
90.0
  0
ARC
  5
1275
330
1F
100
AcDbEntity
  8
SANINDUSA
100
AcDbCircle
 10
1614.588802263685
 20
877.1769461005717
 30
0.0
 40
0.0050000000000001
100
AcDbArc
 50
90.0
 51
147.7960468850215
  0
LINE
  5
1277
330
1F
100
AcDbEntity
  8
SANINDUSA
100
AcDbLine
 10
1614.156042340442
 20
877.1229324033821
 30
0.0
 11
1614.156042340442
 21
877.1689461005717
 31
0.0
  0
LINE
  5
1278
330
1F
100
AcDbEntity
  8
SANINDUSA
100
AcDbLine
 10
1614.165567476328
 20
877.1229847393383
 30
0.0
 11
1614.167807720255
 21
877.1657311399152
 31
0.0
  0
ARC
  5
1279
330
1F
100
AcDbEntity
  8
SANINDUSA
100
AcDbCircle
 10
1614.182787163276
 20
877.1649461005717
 30
0.0
 40
0.015
100
AcDbArc
 50
165.5224878101442
 51
176.999999996727
  0
ARC
  5
127A
330
1F
100
AcDbEntity
  8
SANINDUSA
100
AcDbCircle
 10
1614.167295229891
 20
877.1689461005717
 30
0.0
 40
0.001
100
AcDbArc
 50
345.5224878101442
 51
90.0
  0
LINE
  5
127B
330
1F
100
AcDbEntity
  8
SANINDUSA
100
AcDbLine
 10
1614.157042340442
 20
877.1699461005718
 30
0.0
 11
1614.167295229891
 21
877.1699461005718
 31
0.0
  0
LINE
  5
127C
330
1F
100
AcDbEntity
  8
SANINDUSA
100
AcDbLine
 10
1614.165567476328
 20
877.1229847393383
 30
0.0
 11
1614.16441522204
 21
877.1009984177673
 31
0.0
  0
LINE
  5
127D
330
1F
100
AcDbEntity
  8
SANINDUSA
100
AcDbLine
 10
1614.156042340442
 20
877.1229324033821
 30
0.0
 11
1614.156042340442
 21
877.1009460630503
 31
0.0
  0
LINE
  5
127E
330
1F
100
AcDbEntity
  8
SANINDUSA
100
AcDbLine
 10
1614.164252514063
 20
877.0978937646155
 30
0.0
 11
1614.16441522204
 21
877.1009984177673
 31
0.0
  0
LINE
  5
127F
330
1F
100
AcDbEntity
  8
SANINDUSA
100
AcDbLine
 10
1614.156042340442
 20
877.0979461005717
 30
0.0
 11
1614.156042340442
 21
877.1009460630503
 31
0.0
  0
ARC
  5
1280
330
1F
100
AcDbEntity
  8
SANINDUSA
100
AcDbCircle
 10
1614.157042340442
 20
877.1689461005717
 30
0.0
 40
0.001
100
AcDbArc
 50
90.0
 51
180.0
  0
ARC
  5
1281
330
1F
100
AcDbEntity
  8
SANINDUSA
100
AcDbCircle
 10
1614.147042340442
 20
877.1809461005718
 30
0.0
 40
0.001
100
AcDbArc
 50
90.0
 51
180.0
  0
LINE
  5
1282
330
1F
100
AcDbEntity
  8
SANINDUSA
100
AcDbLine
 10
1614.27584787193
 20
877.1476135366462
 30
0.0
 11
1614.314393699505
 21
877.0864131659138
 31
0.0
  0
ARC
  5
1283
330
1F
100
AcDbEntity
  8
SANINDUSA
100
AcDbCircle
 10
1614.275001715531
 20
877.1470806019884
 30
0.0
 40
0.001
100
AcDbArc
 50
32.20395311497848
 51
190.8510147709052
  0
ARC
  5
1284
330
1F
100
AcDbEntity
  8
SANINDUSA
100
AcDbCircle
 10
1614.290384573977
 20
877.0668291055475
 30
0.0
 40
0.001
100
AcDbArc
 50
190.8510147709052
 51
270.0
  0
ARC
  5
1285
330
1F
100
AcDbEntity
  8
SANINDUSA
100
AcDbCircle
 10
1614.296295320233
 20
877.0648291055476
 30
0.0
 40
0.001
100
AcDbArc
 50
0.0
 51
90.0
  0
ARC
  5
1286
330
1F
100
AcDbEntity
  8
SANINDUSA
100
AcDbCircle
 10
1614.296295320233
 20
877.0488291055475
 30
0.0
 40
0.001
100
AcDbArc
 50
270.0
 51
0.0
  0
ARC
  5
1287
330
1F
100
AcDbEntity
  8
SANINDUSA
100
AcDbCircle
 10
1614.342290331149
 20
877.0648291055476
 30
0.0
 40
0.001
100
AcDbArc
 50
90.0
 51
180.0
  0
ARC
  5
1288
330
1F
100
AcDbEntity
  8
SANINDUSA
100
AcDbCircle
 10
1614.342290331149
 20
877.0488291055475
 30
0.0
 40
0.001
100
AcDbArc
 50
180.0
 51
270.0
  0
ARC
  5
1289
330
1F
100
AcDbEntity
  8
SANINDUSA
100
AcDbCircle
 10
1614.345043028902
 20
877.0969461005718
 30
0.0
 40
0.001
100
AcDbArc
 50
0.0
 51
90.0
  0
ARC
  5
128A
330
1F
100
AcDbEntity
  8
SANINDUSA
100
AcDbCircle
 10
1614.50708477665
 20
877.0869461005716
 30
0.0
 40
0.001
100
AcDbArc
 50
180.0
 51
270.0
  0
ARC
  5
128B
330
1F
100
AcDbEntity
  8
SANINDUSA
100
AcDbCircle
 10
1614.50708477665
 20
877.0969461005718
 30
0.0
 40
0.001
100
AcDbArc
 50
90.0
 51
180.0
  0
LINE
  5
128C
330
1F
100
AcDbEntity
  8
SANINDUSA
100
AcDbLine
 10
1614.586042340442
 20
877.1597179414065
 30
0.0
 11
1614.586042340442
 21
877.0979461005717
 31
0.0
  0
LINE
  5
128D
330
1F
100
AcDbEntity
  8
SANINDUSA
100
AcDbLine
 10
1614.553211945511
 20
877.1110562678702
 30
0.0
 11
1614.584196184044
 21
877.1602508760643
 31
0.0
  0
ARC
  5
128E
330
1F
100
AcDbEntity
  8
SANINDUSA
100
AcDbCircle
 10
1614.585042340442
 20
877.1597179414065
 30
0.0
 40
0.001
100
AcDbArc
 50
0.0
 51
147.7960468850215
  0
LINE
  5
1297
330
1F
100
AcDbEntity
  8
SANINDUSA
100
AcDbLine
 10
1614.267513199191
 20
877.1796107738607
 30
0.0
 11
1614.318948057803
 21
877.0979461005717
 31
0.0
  0
LINE
  5
12AE
330
1F
100
AcDbEntity
  8
SANINDUSA
100
AcDbLine
 10
1614.591042340443
 20
877.0869461005716
 30
0.0
 11
1614.535257343274
 21
877.0869461005716
 31
0.0
  0
ARC
  5
12AF
330
1F
100
AcDbEntity
  8
SANINDUSA
100
AcDbCircle
 10
1614.591042340443
 20
877.0919461005716
 30
0.0
 40
0.005
100
AcDbArc
 50
270.0
 51
0.0
  0
LINE
  5
12B0
330
1F
100
AcDbEntity
  8
SANINDUSA
100
AcDbLine
 10
1614.585042340442
 20
877.0969461005718
 30
0.0
 11
1614.569401623791
 21
877.0969461005718
 31
0.0
  0
ARC
  5
12B1
330
1F
100
AcDbEntity
  8
SANINDUSA
100
AcDbCircle
 10
1614.585042340442
 20
877.0979461005717
 30
0.0
 40
0.001
100
AcDbArc
 50
270.0
 51
0.0
  0
LINE
  5
12BC
330
1F
100
AcDbEntity
  8
SANINDUSA
100
AcDbLine
 10
1614.351315736735
 20
877.0497070084685
 30
0.0
 11
1614.351403036575
 21
877.0511343482452
 31
0.0
  0
ARC
  5
12BD
330
1F
100
AcDbEntity
  8
SANINDUSA
100
AcDbCircle
 10
1614.349319467138
 20
877.0498291055474
 30
0.0
 40
0.002
100
AcDbArc
 50
270.0
 51
356.4999999976704
  0
ARC
  5
12BE
330
1F
100
AcDbEntity
  8
SANINDUSA
100
AcDbCircle
 10
1614.356393710567
 20
877.0508291055476
 30
0.0
 40
0.005
100
AcDbArc
 50
90.0
 51
176.4999999976704
  0
ARC
  5
12BF
330
1F
100
AcDbEntity
  8
SANINDUSA
100
AcDbCircle
 10
1614.289266184245
 20
877.0498291055474
 30
0.0
 40
0.002
100
AcDbArc
 50
183.5000000023296
 51
270.0
  0
LINE
  5
12C0
330
1F
100
AcDbEntity
  8
SANINDUSA
100
AcDbLine
 10
1614.287269914648
 20
877.0497070084685
 30
0.0
 11
1614.287149052412
 21
877.0516830885561
 31
0.0
  0
ARC
  5
12C1
330
1F
100
AcDbEntity
  8
SANINDUSA
100
AcDbCircle
 10
1614.28215837842
 20
877.0513778458585
 30
0.0
 40
0.005
100
AcDbArc
 50
3.500000002329602
 51
70.93102685533714
  0
ARC
  5
12D6
330
1F
100
AcDbEntity
  8
SANINDUSA
100
AcDbCircle
 10
1614.168947671928
 20
877.0919461005716
 30
0.0
 40
0.005
100
AcDbArc
 50
270.0
 51
356.999999996727
  0
LINE
  5
12D7
330
1F
100
AcDbEntity
  8
SANINDUSA
100
AcDbLine
 10
1614.168947671928
 20
877.0869461005716
 30
0.0
 11
1614.20091170983
 21
877.0869461005716
 31
0.0
  0
LINE
  5
12D8
330
1F
100
AcDbEntity
  8
SANINDUSA
100
AcDbLine
 10
1614.20091170983
 20
877.0869461005716
 30
0.0
 11
1614.275328224885
 21
877.0869461005716
 31
0.0
  0
LINE
  5
12D9
330
1F
100
AcDbEntity
  8
SANINDUSA
100
AcDbLine
 10
1614.146042340442
 20
877.0879461005717
 30
0.0
 11
1614.146042340442
 21
877.1009460630503
 31
0.0
  0
ARC
  5
12DA
330
1F
100
AcDbEntity
  8
SANINDUSA
100
AcDbCircle
 10
1614.147042340442
 20
877.0879461005717
 30
0.0
 40
0.001
100
AcDbArc
 50
180.0
 51
270.0
  0
LINE
  5
12EB
330
1F
100
AcDbEntity
  8
SANINDUSA
100
AcDbLine
 10
1614.163253884528
 20
877.0969461005718
 30
0.0
 11
1614.157042340442
 21
877.0969461005718
 31
0.0
  0
ARC
  5
12EC
330
1F
100
AcDbEntity
  8
SANINDUSA
100
AcDbCircle
 10
1614.157042340442
 20
877.0979461005717
 30
0.0
 40
0.001
100
AcDbArc
 50
180.0
 51
270.0
  0
ARC
  5
12ED
330
1F
100
AcDbEntity
  8
SANINDUSA
100
AcDbCircle
 10
1614.163253884528
 20
877.0979461005717
 30
0.0
 40
0.001
100
AcDbArc
 50
270.0
 51
356.999999996727
  0
LINE
  5
1322
330
1F
100
AcDbEntity
  8
SANINDUSA
100
AcDbLine
 10
1614.377473965289
 20
877.0558327490279
 30
0.0
 11
1614.516037196561
 21
877.0629854792623
 31
0.0
  0
LINE
  5
1323
330
1F
100
AcDbEntity
  8
SANINDUSA
100
AcDbLine
 10
1614.532857830954
 20
877.0979461005717
 30
0.0
 11
1614.50708477665
 21
877.0979461005717
 31
0.0
  0
LINE
  5
1324
330
1F
100
AcDbEntity
  8
SANINDUSA
100
AcDbLine
 10
1614.538020123679
 20
877.0869461005716
 30
0.0
 11
1614.530566200828
 21
877.0869461005716
 31
0.0
  0
ARC
  5
1325
330
1F
100
AcDbEntity
  8
SANINDUSA
100
AcDbCircle
 10
1614.529263000086
 20
877.1020911423542
 30
0.0
 40
0.0054867276543084
100
AcDbArc
 50
310.9338064340773
 51
327.8164479975183
  0
ARC
  5
1326
330
1F
100
AcDbEntity
  8
SANINDUSA
100
AcDbCircle
 10
1614.591042340443
 20
877.0919461005716
 30
0.0
 40
0.005
100
AcDbArc
 50
270.0
 51
0.0
  0
LINE
  5
1327
330
1F
100
AcDbEntity
  8
SANINDUSA
100
AcDbLine
 10
1614.377087239135
 20
877.0658261005717
 30
0.0
 11
1614.511336889345
 21
877.0727561607559
 31
0.0
  0
ARC
  5
1329
330
1F
100
AcDbEntity
  8
SANINDUSA
100
AcDbCircle
 10
1614.515779436287
 20
877.0679788308063
 30
0.0
 40
0.0049999999999999
100
AcDbArc
 50
272.9550250414214
 51
342.8153894953542
  0
LINE
  5
132A
330
1F
100
AcDbEntity
  8
SANINDUSA
100
AcDbLine
 10
1614.539490457249
 20
877.0892851334396
 30
0.0
 11
1614.544457546923
 21
877.0971868682861
 31
0.0
  0
LINE
  5
132B
330
1F
100
AcDbEntity
  8
SANINDUSA
100
AcDbLine
 10
1614.559652474583
 20
877.0909065421177
 30
0.0
 11
1614.5586621911
 21
877.0955654596082
 31
0.0
  0
LINE
  5
132C
330
1F
100
AcDbEntity
  8
SANINDUSA
100
AcDbLine
 10
1614.591042340443
 20
877.0869461005716
 30
0.0
 11
1614.564543212587
 21
877.0869461005716
 31
0.0
  0
ARC
  5
132D
330
1F
100
AcDbEntity
  8
SANINDUSA
100
AcDbCircle
 10
1614.564543212587
 20
877.0919461005716
 30
0.0
 40
0.005
100
AcDbArc
 50
192.0000000003634
 51
270.0
  0
ARC
  5
132E
330
1F
100
AcDbEntity
  8
SANINDUSA
100
AcDbCircle
 10
1614.591042340443
 20
877.0919461005716
 30
0.0
 40
0.005
100
AcDbArc
 50
270.0
 51
0.0
  0
ARC
  5
132F
330
1F
100
AcDbEntity
  8
SANINDUSA
100
AcDbCircle
 10
1614.553771453097
 20
877.0945259011542
 30
0.0
 40
0.0050000000000002
100
AcDbArc
 50
12.00000000036341
 51
90.0
  0
ARC
  5
1330
330
1F
100
AcDbEntity
  8
SANINDUSA
100
AcDbCircle
 10
1614.548690660897
 20
877.0945259011542
 30
0.0
 40
0.005
100
AcDbArc
 50
90.0
 51
147.8462240458288
  0
LINE
  5
1331
330
1F
100
AcDbEntity
  8
SANINDUSA
100
AcDbLine
 10
1614.548690660897
 20
877.0995259011542
 30
0.0
 11
1614.553771453097
 21
877.0995259011542
 31
0.0
  0
ARC
  5
1332
330
1F
100
AcDbEntity
  8
SANINDUSA
100
AcDbCircle
 10
1614.52926300009
 20
877.1020911423512
 30
0.0
 40
0.0054867276494507
100
AcDbArc
 50
310.9338064298096
 51
327.8164479975183
  0
LINE
  5
1333
330
1F
100
AcDbEntity
  8
SANINDUSA
100
AcDbLine
 10
1614.585042340442
 20
877.0969461005718
 30
0.0
 11
1614.569401623791
 21
877.0969461005718
 31
0.0
  0
ARC
  5
1334
330
1F
100
AcDbEntity
  8
SANINDUSA
100
AcDbCircle
 10
1614.553771453097
 20
877.0945259011542
 30
0.0
 40
0.0150000000000002
100
AcDbArc
 50
12.34293389078099
 51
88.97345962818926
  0
ARC
  5
1335
330
1F
100
AcDbEntity
  8
SANINDUSA
100
AcDbCircle
 10
1614.585042340442
 20
877.0979461005717
 30
0.0
 40
0.001
100
AcDbArc
 50
270.0
 51
0.0
  0
ARC
  5
1336
330
1F
100
AcDbEntity
  8
SANINDUSA
100
AcDbCircle
 10
1614.569401623791
 20
877.0979461005717
 30
0.0
 40
0.001
100
AcDbArc
 50
192.342933890781
 51
270.0
  0
ARC
  5
1337
330
1F
100
AcDbEntity
  8
SANINDUSA
100
AcDbCircle
 10
1614.554058101909
 20
877.1105233332123
 30
0.0
 40
0.001
100
AcDbArc
 50
147.7960468850215
 51
268.9734596281892
  0
LINE
  5
1338
330
1F
100
AcDbEntity
  8
SANINDUSA
100
AcDbLine
 10
1614.515701677942
 20
877.0846506491176
 30
0.0
 11
1614.512240695043
 21
877.0734593796104
 31
0.0
  0
ARC
  5
1339
330
1F
100
AcDbEntity
  8
SANINDUSA
100
AcDbCircle
 10
1614.51128533729
 20
877.0737548310647
 30
0.0
 40
0.001
100
AcDbArc
 50
272.9550250414214
 51
342.8153894953542
  0
LINE
  5
133A
330
1F
100
AcDbEntity
  8
SANINDUSA
100
AcDbLine
 10
1614.525789412058
 20
877.0834233578423
 30
0.0
 11
1614.520556225057
 21
877.0665015735358
 31
0.0
  0
LINE
  5
133B
330
1F
100
AcDbEntity
  8
SANINDUSA
100
AcDbLine
 10
1614.50708477665
 20
877.0859461005716
 30
0.0
 11
1614.514746320188
 21
877.0859461005716
 31
0.0
  0
LINE
  5
133C
330
1F
100
AcDbEntity
  8
SANINDUSA
100
AcDbLine
 10
1614.507937455595
 20
877.0859461005716
 30
0.0
 11
1614.514746320188
 21
877.0859461005716
 31
0.0
  0
LINE
  5
133E
330
1F
100
AcDbEntity
  8
SANINDUSA
100
AcDbLine
 10
1614.345043028902
 20
877.0859461005716
 30
0.0
 11
1614.50708477665
 21
877.0859461005716
 31
0.0
  0
ARC
  5
1340
330
1F
100
AcDbEntity
  8
SANINDUSA
100
AcDbCircle
 10
1614.315239855904
 20
877.0869461005716
 30
0.0
 40
0.001
100
AcDbArc
 50
212.2039531149785
 51
270.0
  0
ARC
  5
1341
330
1F
100
AcDbEntity
  8
SANINDUSA
100
AcDbCircle
 10
1614.345043028902
 20
877.0869461005716
 30
0.0
 40
0.001
100
AcDbArc
 50
270.0
 51
0.0
  0
ARC
  5
1342
330
1F
100
AcDbEntity
  8
SANINDUSA
100
AcDbCircle
 10
1614.530566200828
 20
877.0819461005716
 30
0.0
 40
0.005
100
AcDbArc
 50
90.0
 51
162.8153894953541
  0
ARC
  5
1343
330
1F
100
AcDbEntity
  8
SANINDUSA
100
AcDbCircle
 10
1614.535257343274
 20
877.0919461005716
 30
0.0
 40
0.005
100
AcDbArc
 50
270.0
 51
327.8462240458289
  0
ARC
  5
1344
330
1F
100
AcDbEntity
  8
SANINDUSA
100
AcDbCircle
 10
1614.514746320188
 20
877.0849461005717
 30
0.0
 40
0.001
100
AcDbArc
 50
342.8153894953542
 51
90.0
  0
LINE
  5
16F5
330
1F
100
AcDbEntity
  8
SANINDUSA
100
AcDbLine
 10
1613.966836070124
 20
877.1819920014127
 30
0.0
 11
1613.521836070124
 21
877.1819920014127
 31
0.0
  0
LINE
  5
16F7
330
1F
100
AcDbEntity
  8
SANINDUSA
100
AcDbLine
 10
1613.521836070124
 20
877.0869920014128
 30
0.0
 11
1613.966836070124
 21
877.0869920014128
 31
0.0
  0
LINE
  5
1700
330
1F
100
AcDbEntity
  8
SANINDUSA
100
AcDbLine
 10
1613.971836070124
 20
877.0919920014128
 30
0.0
 11
1613.971836070124
 21
877.1769920014127
 31
0.0
  0
ARC
  5
1704
330
1F
100
AcDbEntity
  8
SANINDUSA
100
AcDbCircle
 10
1613.966836070124
 20
877.0919920014128
 30
0.0
 40
0.005
100
AcDbArc
 50
270.0
 51
0.0
  0
ARC
  5
1708
330
1F
100
AcDbEntity
  8
SANINDUSA
100
AcDbCircle
 10
1613.966836070124
 20
877.1769920014127
 30
0.0
 40
0.005
100
AcDbArc
 50
0.0
 51
90.0
  0
LINE
  5
170B
330
1F
100
AcDbEntity
  8
SANINDUSA
100
AcDbLine
 10
1613.660601408093
 20
877.0558750063885
 30
0.0
 11
1613.753197113194
 21
877.0558750063885
 31
0.0
  0
LINE
  5
1710
330
1F
100
AcDbEntity
  8
SANINDUSA
100
AcDbLine
 10
1613.651121954567
 20
877.0869920014128
 30
0.0
 11
1613.656308569409
 21
877.059933727164
 31
0.0
  0
LINE
  5
1714
330
1F
100
AcDbEntity
  8
SANINDUSA
100
AcDbLine
 10
1613.665172413942
 20
877.0478750063885
 30
0.0
 11
1613.725000696804
 21
877.0478750063885
 31
0.0
  0
ARC
  5
1718
330
1F
100
AcDbEntity
  8
SANINDUSA
100
AcDbCircle
 10
1613.732000696804
 20
877.0508750063886
 30
0.0
 40
0.005
100
AcDbArc
 50
90.0
 51
180.0
  0
ARC
  5
1719
330
1F
100
AcDbEntity
  8
SANINDUSA
100
AcDbCircle
 10
1613.725000696804
 20
877.0498750063886
 30
0.0
 40
0.0020000000000002
100
AcDbArc
 50
270.0
 51
0.0
  0
LINE
  5
171A
330
1F
100
AcDbEntity
  8
SANINDUSA
100
AcDbLine
 10
1613.727000696804
 20
877.0508750063886
 30
0.0
 11
1613.727000696804
 21
877.0498750063886
 31
0.0
  0
ARC
  5
1723
330
1F
100
AcDbEntity
  8
SANINDUSA
100
AcDbCircle
 10
1613.65819580601
 20
877.0515146243035
 30
0.0
 40
0.0049799451110905
100
AcDbArc
 50
357.9023194014779
 51
62.35522041040083
  0
ARC
  5
1724
330
1F
100
AcDbEntity
  8
SANINDUSA
100
AcDbCircle
 10
1613.665172413942
 20
877.0498750063886
 30
0.0
 40
0.0020000000000002
100
AcDbArc
 50
180.0
 51
270.0
  0
LINE
  5
1725
330
1F
100
AcDbEntity
  8
SANINDUSA
100
AcDbLine
 10
1613.663172413942
 20
877.0498750063886
 30
0.0
 11
1613.663172413942
 21
877.051332342104
 31
0.0
  0
ARC
  5
1726
330
1F
100
AcDbEntity
  8
SANINDUSA
100
AcDbCircle
 10
1613.661219169517
 20
877.0608750063885
 30
0.0
 40
0.005
100
AcDbArc
 50
190.8510147709052
 51
261.804844686713
  0
LINE
  5
172C
330
1F
100
AcDbEntity
  8
SANINDUSA
100
AcDbLine
 10
1613.521836070124
 20
877.1769920014127
 30
0.0
 11
1613.521836070124
 21
877.0869920014128
 31
0.0
  0
LINE
  5
172D
330
1F
100
AcDbEntity
  8
SANINDUSA
100
AcDbLine
 10
1613.521836070124
 20
877.1069920014129
 30
0.0
 11
1613.521836070124
 21
877.1769920014127
 31
0.0
  0
LINE
  5
172E
330
1F
100
AcDbEntity
  8
SANINDUSA
100
AcDbLine
 10
1613.521836070124
 20
877.1819920014127
 30
0.0
 11
1613.521836070124
 21
877.1769920014127
 31
0.0
  0
ARC
  5
172F
330
1F
100
AcDbEntity
  8
SANINDUSA
100
AcDbCircle
 10
1613.891573165968
 20
877.0680247316473
 30
0.0
 40
0.0049999999999999
100
AcDbArc
 50
272.9550250414214
 51
342.8153894953542
  0
LINE
  5
1732
330
1F
100
AcDbEntity
  8
SANINDUSA
100
AcDbLine
 10
1613.901892399138
 20
877.0844692586834
 30
0.0
 11
1613.896349954739
 21
877.0665474743768
 31
0.0
  0
LINE
  5
1734
330
1F
100
AcDbEntity
  8
SANINDUSA
100
AcDbLine
 10
1613.753197113194
 20
877.0558750063885
 30
0.0
 11
1613.891830926243
 21
877.0630313801035
 31
0.0
  0
ARC
  5
1735
330
1F
100
AcDbEntity
  8
SANINDUSA
100
AcDbCircle
 10
1613.906669187908
 20
877.0829920014129
 30
0.0
 40
0.005
100
AcDbArc
 50
126.8698976484495
 51
162.8153894953541
  0
ENDSEC
  0
SECTION
  2
OBJECTS
  0
DICTIONARY
  5
C
330
0
100
AcDbDictionary
281
     1
  3
ACAD_COLOR
350
BA9
  3
ACAD_GROUP
350
D
  3
ACAD_LAYOUT
350
1A
  3
ACAD_MATERIAL
350
BA8
  3
ACAD_MLINESTYLE
350
17
  3
ACAD_PLOTSETTINGS
350
19
  3
ACAD_PLOTSTYLENAME
350
E
  3
ACAD_TABLESTYLE
350
BAA
  3
ACDBHEADERROUNDTRIPXREC
350
1892
  3
AcDbVariableDictionary
350
3D
  3
ASE_INDEX_DICTIONARY
350
B91
  0
DICTIONARY
  5
BA9
102
{ACAD_REACTORS
330
C
102
}
330
C
100
AcDbDictionary
281
     1
  0
DICTIONARY
  5
D
102
{ACAD_REACTORS
330
C
102
}
330
C
100
AcDbDictionary
281
     1
  0
DICTIONARY
  5
1A
102
{ACAD_REACTORS
330
C
102
}
330
C
100
AcDbDictionary
281
     1
  3
Layout1
350
1E
  3
Layout2
350
26
  3
Model
350
22
  0
DICTIONARY
  5
BA8
102
{ACAD_REACTORS
330
C
102
}
330
C
100
AcDbDictionary
281
     1
  0
DICTIONARY
  5
17
102
{ACAD_REACTORS
330
C
102
}
330
C
100
AcDbDictionary
281
     1
  3
Standard
350
18
  0
DICTIONARY
  5
19
102
{ACAD_REACTORS
330
C
102
}
330
C
100
AcDbDictionary
281
     1
  0
ACDBDICTIONARYWDFLT
  5
E
102
{ACAD_REACTORS
330
C
102
}
330
C
100
AcDbDictionary
281
     1
  3
Normal
350
F
100
AcDbDictionaryWithDefault
340
F
  0
DICTIONARY
  5
BAA
102
{ACAD_REACTORS
330
C
102
}
330
C
100
AcDbDictionary
281
     1
  3
Standard
350
BAB
  0
DICTIONARY
  5
1892
102
{ACAD_REACTORS
330
C
102
}
330
C
100
AcDbDictionary
281
     1
  0
DICTIONARY
  5
3D
102
{ACAD_REACTORS
330
C
102
}
330
C
100
AcDbDictionary
281
     1
  3
CTABLESTYLE
350
BB1
  3
DIMASSOC
350
3F
  3
HIDETEXT
350
3E
  3
PROJECTNAME
350
188B
  0
DICTIONARY
  5
B91
102
{ACAD_REACTORS
330
C
102
}
330
C
100
AcDbDictionary
281
     1
  3
ASEBlockHierarchyIndexRecord
350
B92
1001
DCO15
1040
1485069952.593
  0
LAYOUT
  5
1E
102
{ACAD_XDICTIONARY
360
1893
102
}
102
{ACAD_REACTORS
330
1A
102
}
330
1A
100
AcDbPlotSettings
  1

  2
Ploter HP500
  4

  6

 40
0.0
 41
0.0
 42
0.0
 43
0.0
 44
0.0
 45
0.0
 46
0.0
 47
0.0
 48
0.0
 49
0.0
140
0.0
141
0.0
142
1.0
143
1.0
 70
   688
 72
     0
 73
     0
 74
     5
  7
monochrome.ctb
 75
    16
147
1.0
148
0.0
149
0.0
100
AcDbLayout
  1
Layout1
 70
     1
 71
     1
 10
0.0
 20
0.0
 11
420.0
 21
297.0
 12
0.0
 22
0.0
 32
0.0
 14
1.000000000000000E+20
 24
1.000000000000000E+20
 34
1.000000000000000E+20
 15
-1.000000000000000E+20
 25
-1.000000000000000E+20
 35
-1.000000000000000E+20
146
0.0
 13
0.0
 23
0.0
 33
0.0
 16
1.0
 26
0.0
 36
0.0
 17
0.0
 27
1.0
 37
0.0
 76
     0
330
1B
  0
LAYOUT
  5
26
102
{ACAD_XDICTIONARY
360
1897
102
}
102
{ACAD_REACTORS
330
1A
102
}
330
1A
100
AcDbPlotSettings
  1

  2
Ploter HP500
  4

  6

 40
0.0
 41
0.0
 42
0.0
 43
0.0
 44
0.0
 45
0.0
 46
0.0
 47
0.0
 48
0.0
 49
0.0
140
0.0
141
0.0
142
1.0
143
1.0
 70
   688
 72
     0
 73
     0
 74
     5
  7
monochrome.ctb
 75
    16
147
1.0
148
0.0
149
0.0
100
AcDbLayout
  1
Layout2
 70
     1
 71
     2
 10
0.0
 20
0.0
 11
12.0
 21
9.0
 12
0.0
 22
0.0
 32
0.0
 14
0.0
 24
0.0
 34
0.0
 15
0.0
 25
0.0
 35
0.0
146
0.0
 13
0.0
 23
0.0
 33
0.0
 16
1.0
 26
0.0
 36
0.0
 17
0.0
 27
1.0
 37
0.0
 76
     0
330
23
  0
LAYOUT
  5
22
102
{ACAD_XDICTIONARY
360
1895
102
}
102
{ACAD_REACTORS
330
1A
102
}
330
1A
100
AcDbPlotSettings
  1

  2
Ploter HP500
  4
User268
  6

 40
4.995333194732666
 41
16.97565841674804
 42
4.995330810546875
 43
16.97567749023437
 44
209.9733276367187
 45
296.9259948730469
 46
0.0
 47
0.0
 48
0.0
 49
0.0
140
0.0
141
0.0
142
1.0
143
1.0
 70
 11952
 72
     1
 73
     1
 74
     0
  7
sanindusa.ctb
 75
     0
147
1.0
148
-427.5957866592534
149
7.362384574453926
100
AcDbLayout
  1
Model
 70
     1
 71
     0
 10
0.0
 20
0.0
 11
12.0
 21
9.0
 12
0.0
 22
0.0
 32
0.0
 14
0.0
 24
0.0
 34
0.0
 15
0.0
 25
0.0
 35
0.0
146
0.0
 13
0.0
 23
0.0
 33
0.0
 16
1.0
 26
0.0
 36
0.0
 17
0.0
 27
1.0
 37
0.0
 76
     0
330
1F
  0
MLINESTYLE
  5
18
102
{ACAD_REACTORS
330
17
102
}
330
17
100
AcDbMlineStyle
  2
STANDARD
 70
     0
  3

 62
   256
 51
90.0
 52
90.0
 71
     2
 49
0.5
 62
   256
  6
BYLAYER
 49
-0.5
 62
   256
  6
BYLAYER
  0
ACDBPLACEHOLDER
  5
F
102
{ACAD_REACTORS
330
E
102
}
330
E
  0
TABLESTYLE
  5
BAB
102
{ACAD_REACTORS
330
BAA
102
}
330
BAA
100
AcDbTableStyle
  3
Standard
 70
     0
 71
     0
 40
1.5
 41
1.5
280
     0
281
     0
  7
Standard
140
4.5
170
     2
 62
     0
 63
     7
283
     0
274
    -2
284
     1
 64
     0
275
    -2
285
     1
 65
     0
276
    -2
286
     1
 66
     0
277
    -2
287
     1
 67
     0
278
    -2
288
     1
 68
     0
279
    -2
289
     1
 69
     0
  7
Standard
140
6.0
170
     5
 62
     0
 63
     7
283
     0
274
    -2
284
     1
 64
     0
275
    -2
285
     1
 65
     0
276
    -2
286
     1
 66
     0
277
    -2
287
     1
 67
     0
278
    -2
288
     1
 68
     0
279
    -2
289
     1
 69
     0
  7
Standard
140
4.5
170
     5
 62
     0
 63
     7
283
     0
274
    -2
284
     1
 64
     0
275
    -2
285
     1
 65
     0
276
    -2
286
     1
 66
     0
277
    -2
287
     1
 67
     0
278
    -2
288
     1
 68
     0
279
    -2
289
     1
 69
     0
  0
DICTIONARYVAR
  5
BB1
102
{ACAD_REACTORS
330
3D
102
}
330
3D
100
DictionaryVariables
280
     0
  1
STANDARD
  0
DICTIONARYVAR
  5
3F
102
{ACAD_REACTORS
330
3D
102
}
330
3D
100
DictionaryVariables
280
     0
  1
2
  0
DICTIONARYVAR
  5
3E
102
{ACAD_REACTORS
330
3D
102
}
330
3D
100
DictionaryVariables
280
     0
  1
1
  0
DICTIONARYVAR
  5
188B
102
{ACAD_REACTORS
330
3D
102
}
330
3D
100
DictionaryVariables
280
     0
  1

  0
XRECORD
  5
B92
102
{ACAD_REACTORS
330
B91
102
}
330
B91
100
AcDbXrecord
280
     1
  0
DICTIONARY
  5
1893
330
1E
100
AcDbDictionary
280
     1
281
     1
  3
ACAD_XREC_ROUNDTRIP
360
1894
  0
DICTIONARY
  5
1897
330
26
100
AcDbDictionary
280
     1
281
     1
  3
ACAD_XREC_ROUNDTRIP
360
1898
  0
DICTIONARY
  5
1895
330
22
100
AcDbDictionary
280
     1
281
     1
  3
ACAD_XREC_ROUNDTRIP
360
1896
  0
XRECORD
  5
1894
102
{ACAD_REACTORS
330
1893
102
}
330
1893
100
AcDbXrecord
280
     1
102
SHADEPLOT
 70
     0
102
SHADEPLOTRESLEVEL
 70
     2
102
SHADEPLOTCUSTOMDPI
 70
   300
  0
XRECORD
  5
1898
102
{ACAD_REACTORS
330
1897
102
}
330
1897
100
AcDbXrecord
280
     1
102
SHADEPLOT
 70
     0
102
SHADEPLOTRESLEVEL
 70
     2
102
SHADEPLOTCUSTOMDPI
 70
   300
  0
XRECORD
  5
1896
102
{ACAD_REACTORS
330
1895
102
}
330
1895
100
AcDbXrecord
280
     1
102
SHADEPLOT
 70
     0
102
SHADEPLOTRESLEVEL
 70
     2
102
SHADEPLOTCUSTOMDPI
 70
   300
  0
ENDSEC
  0
EOF
